PrimaNota.ru - самый крупный в мире бесплатный архив песенных текстов, аккордов, табулатур и нот


John Schlitt - Take Me Home - таба, видео

Регистрация Запомнить меня
Войти через:  Facebook Google Twitter Vk Yandex Mail.ru

John Schlitt - Take Me Home - таба, видео

Печатать
Просмотров: 37
John Schlitt - Take Me Home

E --------------------------------|
B -3-3-3-3-3-3-3---3-3-3-3-3-3-3--|
G -2-2-2-2-2-2-2---1-1-1-1-1-1-1--|
D -0-0-0-0-0-0-0---0-0-0-0-0-0-0--|
A --------------------------------|
E --------------------------------|

E --------------------------------|
B -3-3-3-3-3-3-3------------------|
G -0-0-0-0-0-0-0------------------|
D -0-0-0-0-0-0-0------3-----5-5/7-|
A ------------------3-----5---5/7-|
E ----------------3-----5---------|

E --------------------------------|
B -3-3-3-3-3-3-3---5-5-5-5-5-5-5--|
G -2-2-2-2-2-2-2---3-3-3-3-3-3-3--|
D -0-0-0-0-0-0-0---0-0-0-0-0-0-0--|
A --------------------------------|
E --------------------------------|

E --------------------------------|
B -6-6-6-6-6-6-6------------------|
G -7-7-7-7-7-7-7------------------|
D -0-0-0-0-0-0-0------3-----5-5/7-|
A ------------------3-----5---5/7-|
E ----------------3-----5---------|

  Guitar 2 does this (2x)
 (Slightly bend the G string)
E ---------------------------------|
B -7-7-7-7-7-7-7----9-9-9-9-9-9-9--|
G -10101010101010---12121212121212-|
D ---------------------------------|
A ---------------------------------|
E ---------------------------------|

E --------------------------------|
B -10101010101010-----------------|
G -13131313131313-----------------|
D --------------------------------|
A --------------------------------|
E --------------------------------|

  While Guitar 1 does this (2x)
E -3-3-3-3-3-3-3---5-5-5-5-5-5-5--|
B -2-2-2-2-2-2-2---3-3-3-3-3-3-3--|
G -0-0-0-0-0-0-0---0-0-0-0-0-0-0--|
D --------------------------------|
A --------------------------------|
E --------------------------------|

E --------------------------------|
B -6-6-6-6-6-6-6------------------|
G -7-7-7-7-7-7-7------------------|
D -0-0-0-0-0-0-0------3-----5-5/7-|
A ------------------3-----5---5/7-|
E ----------------3-----5---------|

  /slide
Добавлено: 04.06.2016
Вам также может быть интересно:
Другие материалы по этой песне:
  • Аккорды и текст

Страница создана 04.06.2016
http://primanota.ru/john-schlitt/take-me-home-chords.htm
Привет, Гость.
Предлагаем пройти революционный курс по гитаре.
Подарок от PrimaNota.Ru, забирай!