PrimaNota.ru - самый крупный в мире бесплатный архив песенных текстов, аккордов, табулатур и нот


John Schlitt - Live It Loud - таба, видео

Регистрация Запомнить меня
Войти через:  Facebook Google Twitter Vk Yandex Mail.ru

John Schlitt - Live It Loud - таба, видео

Печатать
Просмотров: 45
Live It Loud - John Schlitt

  Submited by IronCross12
E -----------------------------|
B -----------------------------|
G -----------------------------|
D -----------------------------|
A -------------33-5/7-5--------|
E -0-3555-3-0--------5-5---0-3-|


E -----------------------------|
B -----------------------------|
G -----------------------------|
D ---------543-----------------|
A ------------535------------3-|
E 555-3-0 --------0-3555-3-0---|


E ----------------------------|
B ----------------------------|
G ----------------------------|
D ---------------------543----|
A 3-5/7-5-----------------5-3-|
E -----5-5--0-3555-3-0--------|


E ----------------------------|
B ----------------------------|
G ----------------------------|
D ----------------------------|
A --5---1---3-----------------|
E 0---0---0-------------------|


   / slide
Добавлено: 23.12.2015
Другие материалы по этой песне:
  • Аккорды и текст

Страница создана 23.12.2015
http://primanota.ru/john-schlitt/live-it-loud-chords.htm
Привет, Гость.
Предлагаем пройти революционный курс по гитаре.
Подарок от PrimaNota.Ru, забирай!