PrimaNota.ru - самый крупный в мире бесплатный архив песенных текстов, аккордов, табулатур и нот


John Ralston - Gone Gone Gone - аккорды и текст, таба, видео

Регистрация Запомнить меня
Войти через:  Facebook Google Twitter Vk Yandex Mail.ru

John Ralston - Gone Gone Gone - аккорды и текст, таба, видео

Печатать
Просмотров: 138
Gone Gone Gone
John Ralston
-------------------------------------------------------------------------------
			     Gone, Gone, Gone – John Ralston
-------------------------------------------------------------------------------
Artist: John Ralston
Song: Gone, Gone, Gone
Album: Needle Bed
Email:kotteng@southwestmust.edu

For picking and strumming patterns watch a video of John's band live at Bamboo Room in 
Lake Worth, Fla. 29 March 2007  http://www.youtube.com/watch?v=7xPKUACMG-Q

Tuning:
 C	2 steps down
Bb	1/2 step down
D#	2 steps down
D#	1/2 step up
G	1 step down
C#      1 1/2 steps down

Verse

Lately you've been acting in a role that's unbecoming of the girl who taught
e|--3--------------------5-----------8-----------------------------------3---|
B|--0--------------------0-----------0-----------------------------------0---|
G|--0--------------------0-----------0-----------------------------------0---|
D|--0--------------------0-----------0-----------------------------------0---|
A|--3--------------------5-----------8-----------------------------------3---|
E|--2--------------------4-----------7-----------------------------------2---|

 Me there was so much in this world worth living, the part that you've been
e|-----5---------------------8------------------------------7----------------|
B|-----0---------------------0------------------------------0----------------|
G|-----0---------------------0------------------------------0----------------|
D|-----0---------------------0------------------------------0----------------|
A|-----5---------------------8------------------------------7----------------|
E|-----4---------------------7------------------------------6----------------|

  Playing has me dazed and missing you but now you're gone, gone, gone.
e|- 8---------------10------------------------------  12----5------ 10----|
B|  0---------------0---------------------------------0-----0-------0-----|
G|  0---------------0---------------------------------0-----0-------0-----|
D|  0---------------0-------------------------------- 0-----0-------0-----|
A|  8---------------10--------------------------------12----5-------10----|
E|- 7---------------9---------------------------------11--- 4-------9-----|



Chorus
 The memories are bittersweet the taste you leave is still stuck in my mouth
e|-3--------3-----------------------------------------------------------3---|
B|-0--------0-----------------------------------------------------------0---|
G|-0--------0-----------------------------------------------------------0---|
D|-5--------0-----------------------------------------------------------5---|
A|----------x---------------------------------------------------------------|
E|----------2---------------------------------------------------------------|

   I want to touch you, want to breath you, say fuck you
e|---------3----------------------------------------------------------------|
B|---------0----------------------------------------------------------------|
G|---------0----------------------------------------------------------------|
D|---------0----------------------------------------------------------------|
A|---------x----------------------------------------------------------------|
E|---------2----------------------------------------------------------------|
     I don't need you get out….    Right now
e|------------------------3--- 3---------------------------------------------|
B|------------------------0--- 0---------------------------------------------|
G|------------------------4--- 2---------------------------------------------|
D|------------------------4--- 2---------------------------------------------|
A|------------------------0--- 0---------------------------------------------|
E|---------------------------------------------------------------------------|

	Outro
e|---- 10-------8------5----3-----------------------------------------------|
B|---- 0--------0------0----0-----------------------------------------------|
G|---- 0--------0------0----0-----------------------------------------------|
D|---- 0--------0------0----0-----------------------------------------------|
A|----10------- 8------5----3-----------------------------------------------|
E|-----9--------7------4----2-----------------------------------------------|


Lyrics

Lately you've been acting in a role that's unbecoming
Of the girl who taught me there was so much in this world worth living.
The part that you've been playing has me dazed and missing you.
But now you're gone, gone, gone.

The promise never harvested in fallow fields shall lie.
In a shallow grave of stubble field and half-remembered lies.
A burning heart deceived me and you really put me on,
But now you're gone, gone, gone.

The memories are bittersweet;
The taste you leave is still stuck in my mouth.
I want to touch you, want to breathe you,
Say, "Fuck you I don't need you - get out...right now."

We were strangers when we met
And we were strangers when you left
Into a shadow world of painted girls and marionettes.
Used to pride myself on living a life without any regrets,
But now that's gone, gone, gone.

How can such sweet kisses come from such a poison tongue?
How can a bed of roses hurt so much to lie upon?
It was the thorn beneath the flower that I wasn't counting on.
And now you're gone, gone, gone.

The memories are bittersweet;
The taste you leave is still stuck in my mouth.
I want to touch you, want to breathe you,
Say, "Fuck you I don't need you - get out...right now."

The city's not the same,
But all the streets they know your name.
They ask me all about you, but my answers pull up lame.
I'm staggering in last night's clothes and it's starting to rain.
And you are gone, gone, gone.

If parted by a river that was running deep and wide,
I'd build a boat to get to you or else I'd drink it dry.
Could fill it back up right now as the tears fall from my eyes.
And you are gone, gone, gone.

The memories are bittersweet;
The taste you leave is still stuck in my mouth.
I want to touch you, want to breathe you,
Say, "Fuck you I don't need you - get out...right now."

Babe if we should meet again way on down the road.
Do me this one favor and pretend we never knowed.
I'll say that you remind me of a girl I knew so long ago,
But now she's gone, gone, gone
But now she's gone, gone, gone
Добавлено: 02.06.2012
Другие материалы по этой песне:
  • Аккорды и текст

Страница создана 04.04.2012
http://primanota.ru/john-ralston/gone-gone-gone-chords.htm
Привет, Гость.
Предлагаем пройти революционный курс по гитаре.
Подарок от PrimaNota.Ru, забирай!