PrimaNota.ru - самый крупный в мире бесплатный архив песенных текстов, аккордов, табулатур и нот


John Prine - Dear John Ive Sent Your Saddle Home - таба, видео

Регистрация Запомнить меня
Войти через:  Facebook Google Twitter Vk Yandex Mail.ru

John Prine - Dear John Ive Sent Your Saddle Home - таба, видео

Печатать
Просмотров: 60
----------------------------------------------------------------------------
	   Dear John (I've Sent Your Saddle Home) - John Prine
----------------------------------------------------------------------------

Tabbed by: Dave S.
Email: Dlgibson@netscape.com

Tuning: Standard

Artist: John Prine
Album: In Spite Of Ourselves
Year: 1999



Intro
e|-------------------------------------------------------------------------|
B|--8--10-13----17--16-17------------------------------17--16-17-----------|
G|------------------------17~--14-12-14-17-12/14-17--------------17~-------|
D|-------------------------------------------------------------------------|
A|--10----15----15--------15~--------------------------15--------15~-------|
E|-------------------------------------------------------------------------|


e|-------------------------------------------------------------------------|
B|--------------16-15-12-13------------------------------------------------|
G|--14p12h14-12--------------10/12-10--5-----------------------------------|
D|-------------------------------------------------------------------------|
A|-----------------------15---8/10--8--3-----------------------------------|
E|-------------------------------------------------------------------------|

C
When I woke up this morning
C
There was a note upon my door
C
Saying " Don't make me no coffee, Babe
C
Cause I won't be back no more"


C
And that's all she wrote
C
"Dear John", I sent your saddle home"


C
Now Jonah got along in the belly of a whale
C
Daniel in the lion's den
C
I know a guy that didn't try to get along
C
And he won't get a chance again


C
That's all she wrote
C
"Dear John", I sent your saddle home"


Guitar Solo
e|-------------------------------------------------------------------------|
B|--8--10-13-----8-8-10-----------8-8-10--------------8-8-10---------------|
G|------------/9--------9\5----/9--------9------5--/9--------9\5-------5---|
D|------------------------------------------5-7--------------------5-7-----|
A|--10----15---------------------------------------------------------------|
E|-------------------------------------------------------------------------|


e|-------------------------------------------------------------------------|
B|-----------------8--10-13--17--16-17--------------16-15------------------|
G|--8-7-5---5---5----------------------17~14-13-12---------16-17--12-10-5~-|
D|--------7---7------------------------------------------------------------|
A|-----------------10----15--15--------15~12-11-10------------15--10--8-3~-|
E|-------------------------------------------------------------------------|


C
She didn't forward no address
C
No she never said goodbye
C
All she said was "If you get blue
C
Just hang your little head and cry"


C
That's all she wrote
C
"Dear John", I sent your saddle home"


C
Now my gal's short and stubby
C
She's mean as she can be
C
If that little old gal of mine
C
Ever gets a hold of me


C
That's all she wrote
C
"Dear John", I fetched your saddle home"


C
Went down to the bank this morning
C
The cashier said with a grin
C
I'm sorry for you Little John
C
But your wife has done been in


C
That's all she wrote
C
"Dear John", I sent your saddle home"


C
That's all she wrote
C
"Dear John", I sent your saddle home"

Добавлено: 06.11.2013
Другие материалы по этой песне:
  • Аккорды и текст

Страница создана 06.11.2013
http://primanota.ru/john-prine/dear-john-ive-sent-your-saddle-home-chords.htm
Привет, Гость.
Предлагаем пройти революционный курс по гитаре.
Подарок от PrimaNota.Ru, забирай!