PrimaNota.ru - самый крупный в мире бесплатный архив песенных текстов, аккордов, табулатур и нот


John Powell - This Is Berk - таба, видео

Регистрация Запомнить меня
Войти через:  Facebook Google Twitter Vk Yandex Mail.ru

John Powell - This Is Berk - таба, видео

Печатать
Просмотров: 120
Авторы музыки: John Powell

-------------------------------------------------------------------------------
                             This is Berk - John Powell
-------------------------------------------------------------------------------
Tabbed by: Nervly
E-mail: nervly@live.com

Music: https://www.youtube.com/watch?v=0KgCOugiUMM

************************************


(0:03 - 0:20)

e|--------------------------------------------------0--0---------------------|
B|------------------------------------------3--3------------1----------------|
G|--2--3---0--3--2-----2--3-----0--3--2--------------------------------------|
D|---------------------------------------------------------------------------|
A|---------------------------------------------------------------------------|
E|---------------------------------------------------------------------------|


(0:24 - 0:32)

e|-------------------1-3-1---------1-3-1-------------------------------------|
B|--1-4/6--6----1-4----------1-4-----------4--1----4---6---------------------|
G|---------------------------------------------------------------------------|
D|---------------------------------------------------------------------------|
A|---------------------------------------------------------------------------|
E|---------------------------------------------------------------------------|

(0:32 - 0:41)

e|-------------------1-3-1------1---3----------------------------------------|
B|--1-4/6--6----1-4---------------------4--1-1-------------------------------|
G|---------------------------------------------------------------------------|
D|---------------------------------------------------------------------------|
A|---------------------------------------------------------------------------|
E|---------------------------------------------------------------------------|


(0:42 - 0:50)

e|--4--4---6---8--8--------8---11--6---8-8-----------------------------------|
B|---------------------4-----------------------------------------------------|
G|---------------------------------------------------------------------------|
D|---------------------------------------------------------------------------|
A|---------------------------------------------------------------------------|
E|---------------------------------------------------------------------------|


(0:51 - 0:58)

e|--13--11--8---6-6---8--1---3--4---6--4/3/1-------1-------------------------|
B|---------------------------------------------4-----------------------------|
G|---------------------------------------------------------------------------|
D|---------------------------------------------------------------------------|
A|---------------------------------------------------------------------------|
E|---------------------------------------------------------------------------|


************************************

| /   slide up
| \   slide down
| h   hammer-on
| p   pull-off
| ~   vibrato
| +   harmonic
| x   Mute note
| b   Bend
| pb  Pre-bend
| br  Bend release
| pbr Pre-bend release
| brb Bend release bend

************************************

This is my very first tab, I hope it helps you!
Добавлено: 23.10.2015
Другие материалы по этой песне:
  • Аккорды и текст

Страница создана 23.10.2015
http://primanota.ru/john-powell/this-is-berk-chords.htm
Привет, Гость.
Предлагаем пройти революционный курс по гитаре.
Подарок от PrimaNota.Ru, забирай!