PrimaNota.ru - самый крупный в мире бесплатный архив песенных текстов, аккордов, табулатур и нот


John Phillips - Topanga Canyon - таба, видео

Регистрация Запомнить меня
Войти через:  Facebook Google Twitter Vk Yandex Mail.ru

John Phillips - Topanga Canyon - таба, видео

Печатать
Просмотров: 105
tabbed by reedoo

>>>>> CAPO ON 3 <<<<<

CHORDS

G    - 320003
C    - x32010 
D    - xx0232
D7   - xx0212
Em   - 022000
Am   - x02210
Bm   - x24432
D/F# - 200230


p = right hand thumb
i = right hand index finger
m = right hand middle finger



INTRO

  G                C                D/F#           D/F#
e|----------------|----------------|--------------|--------------------------|
B|--0-------0-----|--1-------1-----|----------3---|------3---0---------------|
G|------0-------0-|------0-------0-|--2---2-------|--2---------2-------------|
D|----0-------0---|----2-------2---|----0-------0-|----0-------0-------------|
A|----------------|--3-----3-------|--------------|--------------------------|
E|--3-----3-------|----------------|--2-----2-----|--2-----2-----------------|
    m p i p m p i    m p i p m p i    m p i p m p    m p m p m i 
    p                p                p              p         p


  G                C                D/F#           D/F#              
e|----------------|----------------|--------------|--------------------------|
B|--0-------0-----|-0h1------0-----|----------3---|-0h1------1-0-------------|
G|------0-------0-|------0-------0-|--2---2-------|--2-----2-----2-----------|
D|----0-------0---|----2-------2---|----0-------0-|------0-------0-----------|
A|----------------|--3-----3-------|--------------|--------------------------|
E|--3-----3-------|----------------|--2-----2-----|--2-------2---------------|
    m p i p m p i    m p i p m p i    m p i p m p    m   p i m i i 
    p                p                p              i       p   p
                                                     p        
  
  G                G
e|----------------|----------------|
B|--0-------0-----|--0-------0-----|  
G|------0-------0-|------0-------0-|
D|----0-------0---|----0-------0---|
A|----------------|----------------|
E|--3-----3-------|--3-----3-------|
    m p i p m p i    m p i p m p i   
    p                p           


G           C              D/F#
Sometimes I drive out to Topanga
      G          C       D/F#
And I park my car in the sand
G            C                  D/F#
Watching and waiting for a pickup
        D/F#
From my man


G         C                D/F#
And maybe down to Farmer's Market
G                     C              D/F#
Those people, they're working in the sun
G       C             D/F#
Buy and sell it for a profit
     Em              Em  D  C  D7  G
To anyone


G        C               D/F#
Oh Mary, I'm in the deep waters
         Bm               C     D7
And it's way, way over my head
C                     G
Everyone thought I was smarter
Am      C       D7
Than to be this dead


G               C                  D/F#
You've heard of trainwrecks in the mountains
G                 C                 D/F#
Sometimes there's shipwrecks on the sea
G              C         D/F#
Mary, you must always be careful
          Em        Em  D  C  D7  G
Can't you see?


G        C               D/F#
Oh Mary, I'm in the deep waters
         Bm               C     D7
And it's way, way over my head
C                     G
Everyone thought I was smarter
Am      C       D7
Than to be this dead


G         C               D/F#                       
Someone's sick in San Francisco
G        C             D/F#
Some are down in New Orleans
G          C            D/F#
Others are kept in Camarillo
        Em        Em  D  C  D7  G
Picking beans


G        C               D/F#
Oh Mary, I'm in the deep waters
         Bm               C     D7
And it's way, way over my head
C                     G
Everyone thought I was smarter
Am      C       D7
Than to be this dead

Добавлено: 20.06.2013
Другие материалы по этой песне:
  • Аккорды и текст

Страница создана 20.06.2013
http://primanota.ru/john-phillips/topanga-canyon-chords.htm
Привет, Гость.
Предлагаем пройти революционный курс по гитаре.
Подарок от PrimaNota.Ru, забирай!