PrimaNota.ru - самый крупный в мире бесплатный архив песенных текстов, аккордов, табулатур и нот


John Phillips - Drum - бас-таба, видео

Регистрация Запомнить меня
Войти через:  Facebook Google Twitter Vk Yandex Mail.ru

John Phillips - Drum - бас-таба, видео

Печатать
Просмотров: 36
Tabbed by: 6METAL6BASSIST6 
E-mail: petergriffinav@gmail.com

Tuning: EADG

G|------------------------------------------------------------------------------------------------|
D|8-----------------------7-----------------------5-----------------------------------------------|
A|------------8-----------------------5-----------------------8-----------6-----------5-----------|
E|------------------------------------------------------------------------------------------------|

G|------------------------------------------------|
D|3---------------------3-------3-----5-----7-----|
A|------------3-----------------------------------|
E|------------------------------------------------|

0:12

G|------------------------------------------------------------------------------------------------|
D|8-----------------------7-----------------------5-----------------------------------------------|
A|------------8-----------------------5-----------------------8-----------6-----------5-----------|
E|------------------------------------------------------------------------------------------------|

G|------------------------------------------------------------------------------------------------|
D|------------5-----------------------5-----------3-----3-----------------------3-----------------|
A|3-----------------------3-----------------------------------3-----3-----------------------3-----|
E|------------------------------------------------------------------------------------------------|

G|------------------------|
D|3-----3-----5-----7-----|
A|------------------------|
E|------------------------|

0:29

G|------------------------------------------------------------------------------------------------|
D|8-----------------------7-----------------------5-----------------------------------------------|
A|------------8-----------------------5-----------------------8-----------6-----------5-----------|
E|------------------------------------------------------------------------------------------------|

G|------------------------------------------------------------------------------10----------------|
D|------------5---------7/8-----8-----5-----------------------7-----10--------12------12----10----|
A|6-----------------------------------------6-----8-----8-----------------------------------------|
E|------------------------------------------------------------------------------------------------|

G|------------------------|
D|------------5-----7-----|
A|8-----8-----------------|
E|------------------------|

0:45

G|------------------------------------------------------------------------------------------------|
D|8-----------------------7-----------------------5-----------------------------------------------|
A|------------8-----------------------5-----------------------8-----------6-----------5-----------|
E|------------------------------------------------------------------------------------------------|

G|------------------------------------------------------------------------------------------------|
D|------------5-----------------------5-----------3-----3-----------3-----------------------------|
A|3-----------------------3-----------------------------------------------------3-----------3-----|
E|------------------------------------------------------------------------------------------------|

G|------------------------|
D|3-----3-----5-----7-----|
A|------------------------|
E|------------------------|

1:02

G|------------------------------------------------------------------------------------------------|
D|8-----------------------7-----------------------5-----------------------------------------------|
A|------------8-----------------------5-----------------------8-----------6-----------5-----------|
E|------------------------------------------------------------------------------------------------|

G|------------------------------------------------------------------------------10----10----10----|
D|------------5---------7/8-----8-----10----8-----------------7--------10/12----------------------|
A|6-----------------------------------------------8-----------------------------------------------|
E|------------------------------------------------------------------------------------------------|

G|10----------------------|
D|------12----10----7-----|
A|------------------------|
E|------------------------|

1:19

G|------------------------------------------------------------------------------------------------|
D|5-----------------------5-----------------------------------5---------7h8---/-8-----5-----------|
A|------------5-----------------------5-----------6-----------------------------------------6-----|
E|------------------------------------------------------------------------------------------------|

G|------------------------------------------------------------------------------8-----8-----8-----|
D|5-----------------------5---------5-------5-----------------5---------8/10----------------------|
A|------------5-----------------------5-----------6-----------------------------------------------|
E|------------------------------------------------------------------------------------------------|

G|------------------------------------------------------------------------------------------------|
D|5-----------------------5---------5-------5-----------------5---------7/8---/-8-----5-----------|
A|------------5-----------------------5-----------6-----------------------------------------6-----|
E|------------------------------------------------------------------------------------------------|

G|------------------------------------------------------------------8-----------------------------|
D|5-----------------------5---------5-------5-----------5-----8-----------------10----8-----5-----|
A|------------5-----------------------5-----------6---------------------------------------------6/|
E|------------------------------------------------------------------------------------------------|

G|------------------10----------------------------------------------------------------------------|
D|------7-----10-------------12-10----7-----10----------------7-----7-----10----------5-----7-----|
A|8-----------------------------------------------8-----8-----------------------8-----------------|
E|------------------------------------------------------------------------------------------------|

1:56

G|------------------------------------------------------------------------------------------------|
D|8-----------------------7---------7-------------5-----------------------------------------------|
A|------------8-----------------------5-----------------------8-----------6-----------5-----------|
E|------------------------------------------------------------------------------------------------|

G|------------------------------------------------------------------------------------------------|
D|------------5---------5-------------------------3-----3-----3-----3-----3-----3-----3-----4-----|
A|3-----------------------3-----------3-----------------------------------------------------------|
E|------------------------------------------------------------------------------------------------|

2:10

G|------------------------------------------------------------------------8-----------------------|
D|5-----------------------5---------5-------5-----------------8-----------------------10----8-----|
A|------------5-----------------------5-----------6-----------------------------------------------|
E|------------------------------------------------------------------------------------------------|

G|------------------------------------------------------------------------------------8-----------|
D|5-----------------------5-----------------------------------5-----------8-----8-----------------|
A|------------5-----------------------5-----------6-----------------------------------------------|
E|------------------------------------------------------------------------------------------------|

G|10----10----------------------------------------------------------------------------------------|
D|------------10----7-----------10----7-----10----------------7-----7-----10----------7-----10----|
A|------------------------------------------------8-----8-----------------------8-----------------|
E|------------------------------------------------------------------------------------------------|

2:32

G|------------------------------------------------------------------------------------------------|
D|8-----------------------7-----------------------5-----------------------------------------------|
A|------------8-----------------------5-----------------------8-----------6-----------5-----------|
E|------------------------------------------------------------------------------------------------|

G|------------------------------------------------------------------------------------10----10----|
D|------------5---------5-------------5-----------3-----3---/-3-----7--------10h12----------------|
A|3-----------------------3-----------------------------------------------------------------------|
E|------------------------------------------------------------------------------------------------|

G|----10------------------|
D|------12----7-----------|
A|------------------8-----|
E|------------------------|

2:49

G|------------------------------------------------------------------------------------------------|
D|8-----------------------7-----------------------5-----------------------------------------------|
A|------------8-----------------------5-----------------------8-----------6-----------5-----------|
E|------------------------------------------------------------------------------------------------|

G|------------------------------------------------------------------------------------------10----|
D|------------5---------7/8-----8-----5-----8-----7-----------7-----10----------12----------------|
A|6-----------------------------------------------------8-----------------------------------------|
E|------------------------------------------------------------------------------------------------|

G|------------------------|
D|------------5-----7-----|
A|------8-----------------|
E|------------------------|

3:05

G|------------------------------------------------------------------------------------------------|
D|8-----------------------7-----------------------5-----------------------------------------------|
A|------------8-----------------------5-----------------------8-----------6-----------5-----------|
E|------------------------------------------------------------------------------------------------|

G|------------------------------------------------------------------10----------------------------|
D|------------5-----------------------5-----------------------7-----------------12----10----7-----|
A|3-----------------------3---------------------6/8-----8-----------------------------------------|
E|------------------------------------------------------------------------------------------------|

G|------------------------------------------------------------------------------------------------|
D|8-----------------------7-----------------------5-----------------------------------------------|
A|------------8-----------------------5-----------------------8-----------6-----------5-----------|
E|------------------------------------------------------------------------------------------------|

G|--------------------------|
D|----------------------5-5-| fades out here.
A|6-----------6-------------|
E|--------------------------|
Добавлено: 24.06.2016
Другие материалы по этой песне:
  • Аккорды и текст

Страница создана 24.06.2016
http://primanota.ru/john-phillips/drum-chords.htm
Привет, Гость.
Предлагаем пройти революционный курс по гитаре.
Подарок от PrimaNota.Ru, забирай!