PrimaNota.ru - самый крупный в мире бесплатный архив песенных текстов, аккордов, табулатур и нот


John Petrucci - Curve - таба, видео

Регистрация Запомнить меня
Войти через:  Facebook Google Twitter Vk Yandex Mail.ru

John Petrucci - Curve - таба, видео

Печатать
Просмотров: 148
Gtr I (E A D G B E) - 'JP Dist L'
Gtr II (E A D G B E) - 'JP Dist R'
Gtr III (E A D G B E) - 'JP Lead M'


 Intro
  Q=146
                 E5    N.C.    E5    N.(E)
 2/4        4/4
  Gtrs I, II
             PM|         PM|           PM|
  E E Q      E E E E E E E E   E E E E E E S S  E
|--------||------------------|---------------------|
|--------||o-----------------|---------------------|
|--------||------9-9-9-9-----|-9-9-9-9---------[1]-|
|--------||------9-9-9-8-----|-9-9-9-8-------2-----|
|--------||o-----7-7-7-7-----|-7-7-7-7-----2-------|
|--------||--0-0---------0-0-|---------0-0---------|


      E5    N.C.E5      (E)
    PM        PM        PM----|
  E E E E E E E E   +E  S S E E E E E E
|-----------------|----------------------||
|-----------------|---------------------o||
|-----9-9-9-9---9-|-(9)------------------||
|-2---9-9-9-8---9-|-(9)------------------||
|-----7-7-7-7---7-|-(7)---------7-------o||
|---0---------0---|-----0-0-6-7---7-6-4--||


   Theme
    E5         N.C.    E5     N.C.    E5
    Gtr III
                                    ~~~~~
    Q   Q.     q   E   Q.     Q   E Q
||-------------------|------------------|
||o------------------|------------------|
||-------------------|------------------|
||------6------8-----|-9------8---6-6---|
||o------------------|------------------|
||-------------------|------------------|
|
|   Gtrs I, II
|   PM|          PM|            PM--|
|   E E E  E E E E E   E  E E E E E E E
||-------------------|------------------|
||o------------------|------------------|
||------9--9-9-9-----|-9--9-9-9-------9-|
||------9--9-9-8-----|-9--9-9-8-------9-|
||o-----7--7-7-7-----|-7--7-7-7-------7-|
||--0-0----------0-0-|----------0-0-0---|


               N.C.    E6         E5
 ~~~~~                                  ~
  +Q    Q.     q   E     Q.       E E E Q
|--------------------|-----------------------|
|--------------------|-----------------------|
|--------------------|-----------------------|
|-(6)---6------8-----|-/11--------9-9s8-8----|
|--------------------|-----------------------|
|--------------------|-----------------------|
|
|  PM-|          PM|                PM--|
|  E  E E  E E E E E     E   E  E E E E E E
|--------------------|-----------------------|
|--------------------|-----------------------|
|-------9--9-9-9-----|------------9-------9--|
|-------9--9-9-8-----|--11--11-11-9-------9--|
|-------7--7-7-7-----|---7---7--7-7-------7--|
|--0--0----------0-0-|--------------0-0-0----|


               N.C.    E5      N.C.        E5
   ~~~                                   ~~~~~
  +Q    Q.     q   E    Q.     Q    a  E Q
|--------------------|-----------------------|
|--------------------|-----------------------|
|--------------------|-----------------------|
|-(8)---6------8-----|-/9------8---(8)s6-6---|
|--------------------|-----------------------|
|--------------------|-----------------------|
|
|  PM-|          PM|             PM------|
|  E  E E  E E E E E    E  E E E E     E E E
|--------------------|-----------------------|
|--------------------|-----------------------|
|-------9--9-9-9-----|--9--9-9-9-----------9-|
|-------9--9-9-8-----|--9--9-9-8-----------9-|
|-------7--7-7-7-----|--7--7-7-7-----------7-|
|--0--0----------0-0-|-----------0-----0-0---|


              N.C.E5      (E)
 ~~~~~~~~~~~~~~~~~~~~~~~~~~~~~~~~~~~~~~~~~
  +W                  +H.             +E  +E
|-------------------|---------------------------||
|-------------------|--------------------------o||
|-------------------|---------------------------||
|-(6)---------------|-(6)-------------(6)-(6)\--||
|-------------------|--------------------------o||
|-------------------|---------------------------||
|
|  PM-|         PM        PM----|
|  E  E E E E E E E   +E  S S E E E E  E   E
|-------------------|---------------------------||
|-------------------|--------------------------o||
|-------9-9-9-9---9-|-(9)-----------------------||
|-------9-9-9-8---9-|-(9)-----------------------||
|-------7-7-7-7---7-|-(7)---------7------------o||
|--0--0---------0---|-----0-0-6-7---7--6---4----||


  F#         F#sus4  F#      F#sus4  F#5
                                   ~~~~~
  Q   Q.     q   E    Q.     Q   E Q
|------------------|-------------------|
|------------------|-------------------|
|------------------|-------------------|
|-----8------9-----|-11------9---8-8---|
|------------------|-------------------|
|------------------|-------------------|
|
| PM|          PM|             PM--|
| E E E  E E E E E    E  E E E E E E E
|------------------|-------------------|
|------------------|-------------------|
|-----3--3-3-4-----|--3--3-3-4---------|
|-----4--4-4-4-----|--4--4-4-4-------4-|
|------------------|-----------------4-|
|-2-2----------2-2-|-----------2-2-2-2-|


        F#     F#sus4                    F#
 ~~~~~
  +Q    E Q.     q       E  +S       +S   +E   Q.     Q
|--------------------|-------------------------------------|
|--------------------|-------------------------------------|
|--------------------|-------------------------------------|
|-(8)-----8------9---|-/13-(13)b14==(13)r(13)-11------8----|
|--------------------|-------------------------------------|
|--------------------|-------------------------------------|
|
|                PM|                              PM--|
|  E  E E E  E E E E     E   E             E   E  E E E E
|--------------------|-------------------------------------|
|--------------------|-------------------------2-----------|
|-------3-3--3-4-----|---4---4-------------3---3-----------|
|-------4-4--4-4-----|---4---4-------------4---4--------4--|
|--------------------|----------------------------------4--|
|--2--2----------2-2-|----------------------------2-2-2-2--|


  E5                    E5
  +Q     Q.     q   E    E  +S       +S   +E  Q.     Q
|---------------------|--------------------------------------|
|---------------------|--------------------------------------|
|---------------------|-11-(11)b13==(11)r(11)----------------|
|-(8)/---6------8-----|-----------------------9------8-------|
|---------------------|--------------------------------------|
|---------------------|--------------------------------------|
|
|      PM         PM|                            PM|
|  E   E E  E E E E E    E   E             E  E  E E S S  E
|---------------------|--------------------------------------|
|---------------------|--------------------------------------|
|--------9--9-9-9-----|--9---9-------------9--9----------[1]-|
|--2-----9--9-9-8-----|--9---9-------------9--8--------2-----|
|--2-----7--7-7-7-----|--7---7-------------7--7------2-------|
|--0---0----------0-0-|--------------------------0-0---------|


           E5            E5            (E)
                     \1/   \1/     \1/   \1/     \1/   \1/   \1/   \1/   \1/   \1/
   H.               +E    +E      +E    +E      +E    +E    +E    +E    +E    +E
|------------------------------|-----------------------------------------------------|
|------------------------------|-----------------------------------------------------|
|-11b13============(11)--(11)--|-(11)--(11)----(11)--(11)--(11)--(11)--(11)--(11)r---|
|------------------------------|-----------------------------------------------------|
|------------------------------|-----------------------------------------------------|
|------------------------------|-----------------------------------------------------|
|
|        PM          PM                  PM----------|
|  E     E E E E E   E     E      +E     S   S   E     E     E     E     E     E
|------------------------------|-----------------------------------------------------|
|------------------------------|-----------------------------------------------------|
|----------9-9-9-9---------9---|--(9)------------------------------------------------|
|--2-------9-9-9-8---------9---|--(9)------------------------------------------------|
|----------7-7-7-7---------7---|--(7)------------------------7-----------------------|
|--------0-----------0---------|---------0---0---6-----7-----------7-----6-----4-----|


        E5     N.C.     E5      N.C.     E5
                                       ~~~~~
    Q   Q.      q   E    Q.      Q   E Q
||--------------------|--------------------|
||o-----9------11-----|-12------11---9-9---|
||--------------------|--------------------|
||--------------------|--------------------|
||o-------------------|--------------------|
||--------------------|--------------------|
|
|   PM|           PM|              PM--|
|   E E E  E E  E E E    E  E E  E E E E E
||--------------------|--------------------|
||o-------------------|--------------------|
||------9--9-9--9-----|--9--9-9--9-------9-|
||------9--9-9--8-----|--9--9-9--8-------9-|
||o-----7--7-7--7-----|--7--7-7--7-------7-|
||--0-0-----------0-0-|------------0-0-0---|


                N.C.     E6         E5
 ~~~~~~                                       ~~
  +Q     Q.      q   E     Q.        E  E  E  Q
|----------------------|---------------------------|
|-(9)\---9------11-----|-/14--------12-12p11-11----|
|----------------------|---------------------------|
|----------------------|---------------------------|
|----------------------|---------------------------|
|----------------------|---------------------------|
|
|  PM--|           PM|                  PM---|
|  E   E E  E E  E E E     E   E  E  E  E  E  E E
|----------------------|---------------------------|
|----------------------|---------------------------|
|--------9--9-9--9-----|-------------9----------9--|
|--------9--9-9--8-----|--11--11-11--9----------9--|
|--------7--7-7--7-----|---7---7--7--7----------7--|
|--0---0-----------0-0-|----------------0--0--0----|


                N.C.     E5       N.C.          E5
    ~~~~                                      ~~~~~
   +Q    Q.      q   E     Q.      Q     a  E Q
|----------------------|--------------------------|
|-(11)---9------11-----|-/12------11---(11)s9-9---|
|----------------------|--------------------------|
|----------------------|--------------------------|
|----------------------|--------------------------|
|----------------------|--------------------------|
|
|   PM-|           PM|               PM-------|
|   E  E E  E E  E E E     E  E E  E E      E E E
|----------------------|--------------------------|
|----------------------|--------------------------|
|--------9--9-9--9-----|---9--9-9--9------------9-|
|--------9--9-9--8-----|---9--9-9--8------------9-|
|--------7--7-7--7-----|---7--7-7--7------------7-|
|---0--0-----------0-0-|-------------0------0-0---|


              N.C.E5      (E)
 ~~~~~~~~~~~~~~~~~~~~~~~~~~~~~~~~~~~~~~~~~
  +W                  +H.             +E  +E
|-------------------|---------------------------||
|-(9)---------------|-(9)-------------(9)-(9)\-o||
|-------------------|---------------------------||
|-------------------|---------------------------||
|-------------------|--------------------------o||
|-------------------|---------------------------||
|
|  PM-|         PM        PM----|
|  E  E E E E E E E   +E  S S E E E E  E   E
|-------------------|---------------------------||
|-------------------|--------------------------o||
|-------9-9-9-9---9-|-(9)-----------------------||
|-------9-9-9-8---9-|-(9)-----------------------||
|-------7-7-7-7---7-|-(7)---------7------------o||
|--0--0---------0---|-----0-0-6-7---7--6---4----||


  F#          F#sus4   F#      F#sus4     F#5
                                        ~~~~~
  Q    Q.      q   E    Q.      Q.      Q
|--------------------|----------------------|
|-----11------12-----|-14------12------11---|
|--------------------|----------------------|
|--------------------|----------------------|
|--------------------|----------------------|
|--------------------|----------------------|
|
| PM|            PM|               PM--|
| E E  E  E E  E E E    E  E E  E  E E  E E
|--------------------|----------------------|
|--------------------|----------------------|
|------3--3-3--4-----|--3--3-3--4-----------|
|------4--4-4--4-----|--4--4-4--4---------4-|
|--------------------|--------------------4-|
|-2-2------------2-2-|-------------2-2--2-2-|


          F#      F#sus4          F#
 ~~~~~~~
   +Q     E  Q.      q       Q.      Q.      Q
|------------------------|-----------------------|
|-(11)/-----11------12---|-/16------14------11---|
|------------------------|-----------------------|
|------------------------|-----------------------|
|------------------------|-----------------------|
|------------------------|-----------------------|
|
|                    PM|                PM--|
|   E   E E  E  E E  E E     E  E E  E  E E  E E
|------------------------|-----------------------|
|------------------------|-----------2-----------|
|---------3--3--3-4------|---4--4-3--3-----------|
|---------4--4--4-4------|---4--4-4--4---------4-|
|------------------------|---------------------4-|
|---2---2------------2-2-|--------------2-2--2-2-|


  E5            N.C.     E5      N.C.(E)                     E5    N.C.    E5
                                                                       \1/   \1/
   +Q    Q.      q   E    Q.      Q.      Q          H.               +E    +E
|----------------------|--------------------------|------------------------------|
|-(11)---9------11-----|-19-----------------------|-19b21============(19)--(19)--|
|----------------------|---------16------15-------|------------------------------|
|----------------------|--------------------------|------------------------------|
|----------------------|--------------------------|------------------------------|
|----------------------|--------------------------|------------------------------|
|
|   PM-|           PM|               PM|                   PM          PM
|   E  E E  E E  E E E    E  E E  E  E E  S S  E     E     E E E E E   E     E
|----------------------|--------------------------|------------------------------|
|----------------------|--------------------------|------------------------------|
|--------9--9-9--9-----|--9--9-9--9---------------|----------9-9-9-9---------9---|
|--------9--9-9--8-----|--9--9-9--8-----------[6]-|----------9-9-9-8---------9---|
|--------7--7-7--7-----|--7--7-7--7---------7-----|--7-------7-7-7-7---------7---|
|---0--0-----------0-0-|-------------0-0--7-------|--------0-----------0---------|


        (E)
    \1/   \1/     \1/   \1/   \1/   \1/   \1/   \1/
   +E    +E      +E    +E    +E    +E    +E    +E
|---------------------------------------------------|
|-(19)--(19)----(19)--(19)--(19)--(19)--(19)--(19)r-|
|---------------------------------------------------|
|---------------------------------------------------|
|---------------------------------------------------|
|---------------------------------------------------|
|
|         PM----------|
|  +E     S   S   E     E     E     E     E     E
|---------------------------------------------------|
|---------------------------------------------------|
|--(9)----------------------------------------------|
|--(9)----------------------------------------------|
|--(7)------------------------7---------------------|
|---------0---0---6-----7-----------7-----6-----4---|


 Guitar Solo
  E5                      N.C.           E5            N.C.                E5
   S S S  S S S  S S S  S S S  S S S S    S S S  S S S  S S S  S S S  S  S S S
|-19-0-0-18-0-0-19-0-0-18-0-0-16-0-0-0-|-19-0-0-18-0-0-21-0-0-19-0-0-18-19-0-0-|
|--------------------------------------|---------------------------------------|
|--------------------------------------|---------------------------------------|
|--------------------------------------|---------------------------------------|
|--------------------------------------|---------------------------------------|
|--------------------------------------|---------------------------------------|
|
|  PM--|                       PM--|                        PM-------|
|  E   E    E    E   E    E    E   E      E   E    E    E   E    E    E    E
|--------------------------------------|---------------------------------------|
|--------------------------------------|---------------------------------------|
|-----------9----9---9----9------------|--9---9----9----9------------------9---|
|-----------9----9---9----8------------|--9---9----9----8------------------9---|
|-----------7----7---7----7------------|--7---7----7----7------------------7---|
|--0---0-----------------------0---0---|--------------------0----0----0--------|


                          N.C.
   S S S  S S S  S S S  S S S  S S S  S
|-19-0-0-18-0-0-16-0-0-14-0-0-12-0-0-11---|
|-----------------------------------------|
|-----------------------------------------|
|-----------------------------------------|
|-----------------------------------------|
|-----------------------------------------|
|
|  PM--|                       PM--|
|  E   E    E    E   E    E    E   E
|-----------------------------------------|
|-----------------------------------------|
|-----------9----9---9----9---------------|
|-----------9----9---9----8---------------|
|-----------7----7---7----7---------------|
|--0---0-----------------------0---0------|


  E5          N.C.                    E5
  S S S S S S S S T S T T T S T T T T T T T T
|-0-0-9-0-0-7-0-0-6h7h9p7p6h7h9p7p6h7h9p7p6h7h|
|---------------------------------------------|
|---------------------------------------------|
|---------------------------------------------|
|---------------------------------------------|
|---------------------------------------------|
|
|                 PM----------|
| E   E   E   E   E     E     E       E
|---------------------------------------------|
|---------------------------------------------|
|-9---9---9---9-----------------------9-------|
|-9---9---9---8-----------------------9-------|
|-7---7---7---7-----------------------7-------|
|-----------------0-----0-----0---------------|


                                               N.C.
  S S X X S  T X X X X +S  T T X X T T  T T  T  +T   T  T T T S  T T T T T
|-9p7p6h7h9h11-9p7p6h7-(7)h9p7p6h7h9-9h11p9h11-(11)h12p11p9p8h9h11p9p7p6h7h====|
|------------------------------------------------------------------------------|
|------------------------------------------------------------------------------|
|------------------------------------------------------------------------------|
|------------------------------------------------------------------------------|
|------------------------------------------------------------------------------|
|
| PM--|                                                     PM-----|
| E   E        E           E         E           E          E      E
|------------------------------------------------------------------------------|
|------------------------------------------------------------------------------|
|--------------9-----------9---------9-----------9-----------------------------|
|--------------9-----------9---------9-----------8-----------------------------|
|--------------7-----------7---------7-----------7-----------------------------|
|-0---0-----------------------------------------------------0------0-----------|


  E5                N.C.                      E5
                                    |---5---|
  S.T T S T T T T T T T T T S S S S T T T T T S S
|-9s4h6h7p6p4-------------------------------------|
|-------------7p5p4h5h7p5p4-----------------------|
|---------------------------6p4p3h4h6p4p3---------|
|-----------------------------------------6p4p2h4h|
|-------------------------------------------------|
|-------------------------------------------------|
|
|                           PM------|
| E   E     E       E       E   E   E         E
|-------------------------------------------------|
|-------------------------------------------------|
|-9---9-----9-------9-------------------------9---|
|-9---9-----9-------8-------------------------9---|
|-7---7-----7-------7-------------------------7---|
|---------------------------0---0---0-------------|


                                          N.C.
  T T T T T T T T T T T T T T T T T T T T T T T T T T T T S S
|----------------------------------------------------------------|
|----------------------------------------------------------------|
|----------------------------------------------------------------|
|-6p4p2h4h6p4p2h4h6p4p2h4h6p4p2h4p2h4h6p4p2h4h6p4p2h4h6p4h6s8s===|
|----------------------------------------------------------------|
|----------------------------------------------------------------|
|
| PM------|                                       PM------|
| E       E       E       E       E       E       E       E
|----------------------------------------------------------------|
|----------------------------------------------------------------|
|-----------------9-------9-------9-------9----------------------|
|-----------------9-------9-------9-------8----------------------|
|-----------------7-------7-------7-------7----------------------|
|-0-------0---------------------------------------0-------0------|


  E5                      N.C.                E5    F#5
                                  |-3-|       |----5----|
  T T T T T T T T T T T T T T T T S S S S S a S S S   S S
|---------------------------------------------------------||
|---------------------------------------------------------||
|---------------------------------------------------------||
|-6p3p2h4h6p4p2h4h6h8p6p4h6p4-----------------------------||
|-----------------------------7p6-6p4---4h6-6s1---------1-||
|-------------------------------------7---------4p2h==4---||
|
|                                 PM----------|
| E       E       E       E       E     E     E     E
|---------------------------------------------------------||
|---------------------------------------------------------||
|-9-------9-------9-------9-------------------------------||
|-9-------9-------9-------8-------------------2-----4-----||
|-7-------7-------7-------7-------------------2-----4-----||
|---------------------------------0-----0-----0-----2-----||


  F#5                             G5         E5        F#5
  Q   S S E +Q.     T T S   E E E  E   +E    +E    +E  E
|-------------------------|--------------------------------|
|-------------------------|----------------------------7b8r|
|-------------------------|---3-4-/6b7r(6)b7r(6)b7r(6)-----|
|---------4-(4)-----5p4p3-|-4------------------------------|
|-------------------------|--------------------------------|
|-2---2s3-----------------|--------------------------------|
|
| PM|     PM|     PM|
| E E E   E  E  E E E       E E E  E    E     E     E  E
|-------------------------|--------------------------------|
|-------------------------|--------------------------------|
|-------------------------|--------------------------------|
|-----4---------4---------|-4-4-4--5----5-----2-----2--4---|
|-----4---------4---------|-4-4-4--5----5-----2-----2--4---|
|-2-2-2---2--2--2-2-0-----|-2-2-2--3----3-----0-----0--2---|


                                                    A5    G5        E5
                |-3-|
  +E    +E  +E  S S S E.   E.  E   S E   S      +E  E E   +E    +E  S   S
|--------------------------------|-------------------------------------------|
|-(7)b8r(7)-(7)-5h7p5s2----3s==5s|=8-3---2pb3.5r(2)--------------------14s===|
|--------------------------------|------------------4-3b4r(3)b4r(3)-3/-------|
|--------------------------------|-------------------------------------------|
|--------------------------------|-------------------------------------------|
|--------------------------------|-------------------------------------------|
|
|  PM---|       PM----|      PM|
|  E     E   E  E     E  E   E E   E   E         E  E E    E     E  E
|--------------------------------|-------------------------------------------|
|--------------------------------|-------------------------------------------|
|--------------------------------|-------------------------------------------|
|------------4-----------4-------|-4---4---------4--7-7----5-----5--2--------|
|------------4-----------4-------|-4---4---------4--7-7----5-----5--2--------|
|--2-----2---2--2-----2--2---2-0-|-2---2---------2--5-5----3-----3--0--------|


  F#5
                                    |--3--|
  T T T T S  T T T  S  S    S T  S  T  T  T  T T  T  T  T T  S  S  T T
|----------------------------------------------------------------------|
|-7h8p7p0h8h11p8p0h11h12p==11p0h12h14h15p14p12p0h11h12p11p0h12h14p12p0-|
|----------------------------------------------------------------------|
|----------------------------------------------------------------------|
|----------------------------------------------------------------------|
|----------------------------------------------------------------------|
|
| PM------|              PM-----|                       PM-----|
| E       E      E       E       E           E          E       E
|----------------------------------------------------------------------|
|----------------------------------------------------------------------|
|----------------------------------------------------------------------|
|----------------4---------------------------4-------------------------|
|----------------4---------------------------4-------------------------|
|-2-------2------2-------2-------2-----------2----------2-------0------|


                              G5                 E5        F#5
   T  T  T T  S  S  T T  T  S    T T  T    E      +E   +E   +E
|---------------------------------------------------------------||
|-14h15p14p0h12h14p12p0h11h12p==11p0h11/-/19b21==(19)r(19)-(19)-||
|---------------------------------------------------------------||
|---------------------------------------------------------------||
|---------------------------------------------------------------||
|---------------------------------------------------------------||
|
|  E          E     E         E            E       E    E    E
|---------------------------------------------------------------||
|---------------------------------------------------------------||
|---------------------------------------------------------------||
|--4----------4-----4---------5------------5-------2----2----4--||
|--4----------4-----4---------5------------5-------2----2----4--||
|--2----------2-----2---------3------------3-------0----0----2--||


    E        +E        +E   +E  E   S  S  S  S  S  S
|----------------------------------14-14-15-14-12-14-|
|-[19]b20.5r(19)b20.5r(19)-(19)s7/-------------------|
|----------------------------------------------------|
|----------------------------------------------------|
|----------------------------------------------------|
|----------------------------------------------------|
|
|   PM------|                PM-|         PM---|
|   E         E         E    E  E   E     E     E
|----------------------------------------------------|
|----------------------------------------------------|
|----------------------------------------------------|
|-----------------------4-----------4----------------|
|-----------------------4-----------4----------------|
|---2---------2---------2----2--2---2-----2-----0----|


                    A5          G5          E5
   S  S  S  S  S  S  S  S  S  S  S  S  S  S  S  S
|----12-------------------------------------------|
|-15----14-15----14-------------------------------|
|-------------16----16-15-------------------------|
|-------------------------17-16-14----------------|
|----------------------------------17-16-14-------|
|-------------------------------------------15-14-|
|
|  E     E     E     E     E     E     E     E
|-------------------------------------------------|
|-------------------------------------------------|
|-------------------------------------------------|
|--4-----4-----4-----7-----7-----5-----5-----2----|
|--4-----4-----4-----7-----7-----5-----5-----2----|
|--2-----2-----2-----5-----5-----3-----3-----0----|


  Db5                                   N.C.
                                  |-3-|         |----5----|
   S     +S      +S      +S   Q   S S S T T T T S S S   S S
|-----------------------------------------------------------|
|-----------------------------------------------------------|
|---------------------------------------------4h6h8p6p==4---|
|---------------------------------------5h6h8-------------8p|
|-16b18r(16)b18r(16)b18r(16)-18s==4h6h8---------------------|
|-----------------------------------------------------------|
|
|  PM-----------|                               PM----|
|  E              E           E E E     E       E     E
|-----------------------------------------------------------|
|-----------------------------------------------------------|
|-----------------------------6-6-6-----6-------------------|
|-----------------------------6-6-6-----5-------------------|
|--4--------------4-----------4-4-4-----4-------4-----4-----|
|-----------------------------------------------------------|


  Db5                 N.C.                  Db5
                          |-3-| |-3-|
  T T +S  +E    +E    +E  S S S S S S T S T S S
|-------------------------------------------------|
|-----------------------------------6h8h9p8p6-----|
|-----------------------------4h6h8-----------8p==|
|-6p5-(5)-(5)b6r(5)b6r(5)-6h8---------------------|
|-------------------------------------------------|
|-------------------------------------------------|
|
|                         PM----------|
| E        E     E     E  E     E     E     E
|-------------------------------------------------|
|-------------------------------------------------|
|-6--------6-----6-----6--------------------6-----|
|-6--------6-----6-----5--------------------6-----|
|-4--------4-----4-----4--4-----4-----4-----4-----|
|-------------------------------------------------|


                    N.C.
  ~~
            |------6-------|  |--3--|
  Q    Q    S  S  S  S  S  S  S  S  S  E
|----------------------------------------|
|----------12h14h16p14p12----------------|
|-6/----------------------15p13p12-------|
|----------------------------------15p13-|
|----------------------------------------|
|----------------------------------------|
|
| PM-|                        PM------|
| E  E E E  E        E        E        E
|----------------------------------------|
|----------------------------------------|
|------6-6--6--------6-------------------|
|------6-6--6--------5-------------------|
|-4--4-4-4--4--------4--------4--------4-|
|----------------------------------------|


  Db5                 N.C.                  Db5
     |--3--|  |------6-------|               |--3--|
  E  S  S  S  S  S  S  S  S  S  +E   +E   E  S  S  S
|-----------------------------------------------------|
|---14h16h18p16p14--------------------------21p20p18--|
|------------------16p15p13p12-(12)-(12)/-------------|
|-----------------------------------------------------|
|-----------------------------------------------------|
|-----------------------------------------------------|
|
|                                PM-------|
| E  E        E        E         E    E   E  E
|-----------------------------------------------------|
|-----------------------------------------------------|
|-6--6--------6--------6---------------------6--------|
|-6--6--------6--------5---------------------6--------|
|-4--4--------4--------4---------4----4---4--4--------|
|-----------------------------------------------------|


                      N.C.               Db5       N.C.           Db5
                                          ~~~~~
   E      +Q     E  E  +E   E      +E     H          E  E     +E   E
|-18b19==(18)---18-18r(18)-18pb19r(18)-|-18b19---------19b21r(19)-18-|
|--------------------------------------|-----------------------------|
|--------------------------------------|-----------------------------|
|--------------------------------------|-----------------------------|
|--------------------------------------|-----------------------------|
|--------------------------------------|-----------------------------|
|
|  PM----|                  PM----|                  PM------|
|  E       E  E  E  E   E   E       E     E    E E E E  E      E   E
|--------------------------------------|-----------------------------|
|--------------------------------------|-----------------------------|
|-------------6--6--6---6--------------|--6----6-6-6---------------6-|
|-------------6--6--6---5--------------|--6----6-6-5---------------6-|
|--4-------4--4--4--4---4---4-------4--|--4----4-4-4-4--4------4---4-|
|--------------------------------------|-----------------------------|


                         N.C.         Db5      N.C.        Db5
   E  E     +E   E  E     +E   E  E    E  E  E  E  E  E  E  E
|-16--------------------------------|----------------16-15-14--||
|----18b20r(18)-16------------------|----------16p14-----------||
|------------------16b18r(16)-15-13-|-12-----------------------||
|-----------------------------------|----15-13-----------------||
|-----------------------------------|--------------------------||
|-----------------------------------|--------------------------||
|
|  PM|                         PM|                 PM---|
|  E  E      E   E  E      E   E  E    E  E  E  E  E  E  E  E
|-----------------------------------|--------------------------||
|-----------------------------------|--------------------------||
|------------6---6--6------6--------|--6--6--6--6-----------6--||
|------------6---6--6------5--------|--6--6--6--5-----------6--||
|--4--4------4---4--4------4---4--4-|--4--4--4--4--4--4--4--4--||
|-----------------------------------|--------------------------||


  B5                            B5                          C5       A5      B5
                                                                   ~~   PM----------
                                  |--3--|  |--3--|  |--3--|
   +H             H               S  S  S  S  S  S  S  S  S  S  S  Q    S  S  S  S
|-(14tr15)--------------------|----------------------------------------------------|
|----------------16tr17-------|-\12h13p12------------------------------------------|
|-----------------------------|-----------14p12p11h12p11h12p11---------------------|
|-----------------------------|--------------------------------14-13---------------|
|-----------------------------|----------------------------------------15-14-12----|
|-----------------------------|-------------------------------------------------15-|
|
|          PM  PM|        PM|
|   E      E E E  E     E E E     E        E        E        E     E E  E     E
|-----------------------------|----------------------------------------------------|
|-----------------------------|----------------------------------------------------|
|-----------------------------|------------4---------------------------------------|
|---4--------4----------4-----|---4--------4--------4--------5-----5-2--2-----4----|
|---2------2-2-2--2-----2-2-0-|---2--------2--------2--------3-----3-0--0-----2----|
|-----------------------------|----------------------------------------------------|


                                       B5          D5          C5               B5
 ----|    ~~~~~~~~~~~~~~~PM-----------------------------------------|
                                                        |-3--| |--3--| |-----6------|
   S  S   E   +Q     +E  S S S S S S   S S S S S S S  S S S  S S  S  S T T  S S S S S
|------------------------------------|---------------------------------8p7---------------|
|------------------------------------|-------------------------8-10-11-----10-8-8-7------|
|------------------------------------|------------------8-9-11----------------------9----|
|------------------------------------|-----7-9-6-7-9-10----------------------------------|
|----------------------------6-7-6-6-|-7-9-----------------------------------------------|
|-14-12-[11]-(11)---(11)-7-8---------|---------------------------------------------------|
|
|  PM---|         PM|        PM--|
|  E      E    E  E   E  E   E   E     E   E   E   E    E      E       E        E
|------------------------------------|---------------------------------------------------|
|------------------------------------|---------------------------------------------------|
|------------------------------------|---------------------------------------------------|
|--------------4---------4-----------|-4---4---4---7----7------5-------5--------4--------|
|--2------2----2--2---2--2---2---0---|-2---2---2---5----5------3-------3--------2--------|
|------------------------------------|---------------------------------------------------|


  ~~
                    |----------------11:8------------------|
  Q.     +S   T  T  S  S  S    S  S  T    T  S  S  S    S  S
|-7------(7)\-------------------------------11-14------------|
|---------------------13-16--------------13-------13---------|
|------------------14---------14----14-----------------14-14-|
|---------------16---------------14--------------------------|
|------------------------------------------------------------|
|------------------------------------------------------------|
|
| PM-|    PM-------|                   PM------------|
| E  E E  E         E       E          E             E
|------------------------------------------------------------|
|------------------------------------------------------------|
|------------------------------------------------------------|
|------4--------------------4--------------------------------|
|-2--2-2--2---------2-------2----------2-------------0-------|
|------------------------------------------------------------|


  B5                          C5             A5                B5
                   |------6-------|                    |--3--|
   T  T  T  T  E   T  T  S  S  S  E  T  T  S  T  T  S  S  S  S  T  T  S
|----14-17--------------------------------14-17----------17h20-20---------|
|-16-------16-----------16-19----------16-------16----19----------19------|
|-------------14\----17-------17----17-------------14----------------17---|
|-----------------19-------------17---------------------------------------|
|-------------------------------------------------------------------------|
|-------------------------------------------------------------------------|
|
|  E           E   E           E     E        E        E        E
|-------------------------------------------------------------------------|
|-------------------------------------------------------------------------|
|--------------4----------------------------------------------------------|
|--4-----------4---4-----------5-----5--------2--------2--------4---------|
|--2-----------2---2-----------3-----3--------0--------0--------2---------|
|-------------------------------------------------------------------------|


                                 |--3--|  |-----5:3-----|
   T  T  T  T  T  T  S  T  T  S  S  S  S  S  S  S  S    S  S  T  T  T  T  T  T  S
|----------------------------17-20----------20h23-23---------------17h20-20-------|
|-------19h22-22----------19-------19----22------------22-------19----------19----|
|----20----------20----20-------------17------------------20-20----------------17-|
|-21----------------19------------------------------------------------------------|
|---------------------------------------------------------------------------------|
|---------------------------------------------------------------------------------|
|
|  PM---------|                  PM------|                    PM---------|
|  E           E        E        E        E          E        E           E
|---------------------------------------------------------------------------------|
|---------------------------------------------------------------------------------|
|---------------------------------------------------------------------------------|
|-----------------------4----------------------------4----------------------------|
|--2-----------2--------2--------2--------2----------2--------2-----------0-------|
|---------------------------------------------------------------------------------|


  B5                               D5
   T  T  T  T  T  T  S  T  T  T  T  T  T  T  T  T  T  T  T  T  T  S  E.    +S
|-------18h21-21-------------19h22-22----------------20h23-23-------24----(24)\--||
|----20----------20-------21----------21p20-------22----------22-----------------||
|-21----------------18-22-------------------19-23----------------20--------------||
|--------------------------------------------------------------------------------||
|--------------------------------------------------------------------------------||
|--------------------------------------------------------------------------------||
|
|  E           E        E           E           E           E        E  E
|--------------------------------------------------------------------------------||
|--------------------------------------------------------------------------------||
|--------------------------------------------------------------------------------||
|--4-----------4--------4-----------7-----------7-----------7--------7--7--------||
|--2-----------2--------2-----------5-----------5-----------5--------5--5--------||
|--------------------------------------------------------------------------------||


 Theme
  E5          N.C.     E5      N.C.     E5
                                      ~~~~~
  Q    Q.      q   E    Q.      Q   E Q
|--------------------|--------------------|
|-----\9------11-----|-12------11---9-9---|
|--------------------|--------------------|
|--------------------|--------------------|
|--------------------|--------------------|
|--------------------|--------------------|
|
| PM|            PM|              PM--|
| E E  E  E E  E E E    E  E E  E E E E E
|--------------------|--------------------|
|--------------------|--------------------|
|------9--9-9--9-----|--9--9-9--9-------9-|
|------9--9-9--8-----|--9--9-9--8-------9-|
|------7--7-7--7-----|--7--7-7--7-------7-|
|-0-0------------0-0-|------------0-0-0---|


                N.C.     E6         E5
 ~~~~~~                                      ~~
  +Q     Q.      q   E     Q.        Q.      Q
|----------------------|-------------------------|
|-(9)\---9------11-----|-/14--------12------11---|
|----------------------|-------------------------|
|----------------------|-------------------------|
|----------------------|-------------------------|
|----------------------|-------------------------|
|
|  PM--|           PM|                  PM--|
|  E   E E  E E  E E E     E   E  E  E  E E  E E
|----------------------|-------------------------|
|----------------------|-------------------------|
|--------9--9-9--9-----|-------------9---------9-|
|--------9--9-9--8-----|--11--11-11--9---------9-|
|--------7--7-7--7-----|---7---7--7--7---------7-|
|--0---0-----------0-0-|----------------0-0--0---|


         E5     N.C.     E5       N.C.          E5
    ~~~~                                      ~~~~~
   +Q    Q.      q   E     Q.      Q     a  E Q
|----------------------|--------------------------|
|-(11)---9------11-----|-/12------11---(11)s9-9---|
|----------------------|--------------------------|
|----------------------|--------------------------|
|----------------------|--------------------------|
|----------------------|--------------------------|
|
|   PM-|           PM|               PM-------|
|   E  E E  E E  E E E     E  E E  E E      E E E
|----------------------|--------------------------|
|----------------------|--------------------------|
|--------9--9-9--9-----|---9--9-9--9------------9-|
|--------9--9-9--8-----|---9--9-9--8------------9-|
|--------7--7-7--7-----|---7--7-7--7------------7-|
|---0--0-----------0-0-|-------------0------0-0---|


                 N.C.     E5            (E)
 ~~~~~
  +H         S S S  S S S  S S    S   S S S  S S S  S S S  S S S S S S
|------------------------------|---------------------------------------|
|-(9)-------12-0-0-11-0-0-12-0-|--0--11-0-0-14-0-0-12-0-0-11-0-0-7-0-0-|
|------------------------------|---------------------------------------|
|------------------------------|---------------------------------------|
|------------------------------|---------------------------------------|
|------------------------------|---------------------------------------|
|
|  PM-|               PM                PM-------|
|  E  E E E  E   E    E    E     +E     S S  E   E    E    E   E   E
|------------------------------|---------------------------------------|
|------------------------------|---------------------------------------|
|-------9-9--9---9---------9---|-(9)-----------------------------------|
|-------9-9--9---8---------9---|-(9)-----------------------------------|
|-------7-7--7---7---------7---|-(7)------------------7----------------|
|--0--0---------------0--------|--------0-0--6---7---------7---6---4---|


       E5      N.C.     E5      N.C.     E5                N.C.
                                       ~~~~~~~~~~~
  E  E  Q.      q   E    Q.      Q   E Q     +Q     Q.      q    E
|---------------------|--------------------|-----------------------|
|-9\---/9------11-----|-12------11---9-9---|-(9)\---9------11---14-|
|---------------------|--------------------|-----------------------|
|---------------------|--------------------|-----------------------|
|---------------------|--------------------|-----------------------|
|---------------------|--------------------|-----------------------|
|
| PM-|            PM|              PM--|      PM--|           PM|
| E  E  E  E E  E E E    E  E E  E E E E E    E   E E  E E  E E  E
|---------------------|--------------------|-----------------------|
|---------------------|--------------------|-----------------------|
|-------9--9-9--9-----|--9--9-9--9-------9-|--------9--9-9--9------|
|-------9--9-9--8-----|--9--9-9--8-------9-|--------9--9-9--8------|
|-------7--7-7--7-----|--7--7-7--7-------7-|--------7--7-7--7------|
|-0--0------------0-0-|------------0-0-0---|--0---0-----------0--0-|


  E6                      E5
    \0.5/   \0.5/   \0.5/      \0.5/      \0.5/   \0.5/
   +E      +E      +E      E  +E      E  +E      +E
|-------------------------------------------------------|
|-(14)----(14)----(14)----12-(12)----11-(11)----(11)----|
|-------------------------------------------------------|
|-------------------------------------------------------|
|-------------------------------------------------------|
|-------------------------------------------------------|
|
|                              PM-------|
|   E       E       E      E   E      E   E       E
|-------------------------------------------------------|
|-------------------------------------------------------|
|--------------------------9----------------------9-----|
|--11------11------11------9----------------------9-----|
|---7-------7-------7------7----------------------7-----|
|------------------------------0------0---0-------------|


            E5      N.C.     E5       N.C.          E5
    \0.5/
                                                  ~~~~~
   +Q        Q.      q   E     Q.      Q     a  E Q
|--------------------------|--------------------------|
|-(11)/-----\9------11-----|-/12------11---(11)s9-9---|
|--------------------------|--------------------------|
|--------------------------|--------------------------|
|--------------------------|--------------------------|
|--------------------------|--------------------------|
|
|   PM----|            PM|               PM-------|
|   E     E  E  E E  E E E     E  E E  E E      E E E
|--------------------------|--------------------------|
|--------------------------|--------------------------|
|------------9--9-9--9-----|---9--9-9--9------------9-|
|------------9--9-9--8-----|---9--9-9--8------------9-|
|------------7--7-7--7-----|---7--7-7--7------------7-|
|---0-----0------------0-0-|-------------0------0-0---|


                    N.C.        E5       (E)
 ~~~~~                                                                    ~~~
                            |3|
  +Q.       S  S  E  +S   S E S E   +E    S  T  T  T  T  S  +S   S S S E +Q
|---------/14-14-14-(14)\---------|------12S19-19-19-19-19-(19)\---------------|
|-(9)---------------------9-9-9-9-|-(9)/-------------------------9-9-9-9-(9)---|
|---------------------------------|--------------------------------------------|
|---------------------------------|--------------------------------------------|
|---------------------------------|--------------------------------------------|
|---------------------------------|--------------------------------------------|
|
|  PM-|                     PM            PM---------------|
|  E  E E   E     E   E     E   E   +E    S  S     E         E     E   E  E  E
|---------------------------------|--------------------------------------------|
|---------------------------------|--------------------------------------------|
|-------9---9-----9---9---------9-|-(9)----------------------------------------|
|-------9---9-----9---8---------9-|-(9)----------------------------------------|
|-------7---7-----7---7---------7-|-(7)----------------------------7-----------|
|--0--0---------------------0-----|-------0--0-----6---------7---------7--6--4-|


  F#          F#sus4    F#      F#sus4     F#5
                    PM                   ~~~~~
  Q    Q.      q    e    Q.      Q.      Q
|---------------------|----------------------|
|-----11------12------|-14------12------11---|
|------------------11-|----------------------|
|---------------------|----------------------|
|---------------------|----------------------|
|---------------------|----------------------|
|
| PM|            PM|                PM--|
| E E  E  E E  E E  E    E  E E  E  E E  E E
|---------------------|----------------------|
|---------------------|----------------------|
|------3--3-3--4------|--3--3-3--4-----------|
|------4--4-4--4------|--4--4-4--4---------4-|
|---------------------|--------------------4-|
|-2-2------------2--2-|-------------2-2--2-2-|


         F#      F#sus4           F#
 ~~~~~~
   +Q    E  Q.      q      Q.        Q.      Q
|-----------------------|------------------------|
|-(11)-----11------12---|-14b16r====14------11---|
|-----------------------|------------------------|
|-----------------------|------------------------|
|-----------------------|------------------------|
|-----------------------|------------------------|
|
|                   PM|                 PM--|
|   E  E E  E  E E  E E    E    E E  E  E E  E E
|-----------------------|------------------------|
|-----------------------|------------2-----------|
|--------3--3--3-4------|--4----4-3--3-----------|
|--------4--4--4-4------|--4----4-4--4---------4-|
|-----------------------|----------------------4-|
|---2--2------------2-2-|---------------2-2--2-2-|


  E5           N.C.     E5      N.C.(E)
   Q    Q.      q   E    Q.      Q.      Q
|---------------------|--------------------------|
|-11/---9------11-----|-19-----------------------|
|---------------------|---------16------15-------|
|---------------------|--------------------------|
|---------------------|--------------------------|
|---------------------|--------------------------|
|
|  PM-|           PM|               PM|
|  E  E E  E E  E E E    E  E E  E  E E  S S  E
|---------------------|--------------------------|
|---------------------|--------------------------|
|-------9--9-9--9-----|--9--9-9--9---------------|
|-------9--9-9--8-----|--9--9-9--8-----------[6]-|
|-------7--7-7--7-----|--7--7-7--7---------7-----|
|--0--0-----------0-0-|-------------0-0--7-------|


           E5       N.C.   E5       N.C.
                                 ~~~
   H            +Q     +E   E    W
|-16b18========(16)r==(16)-16-|-16------------------|
|-----------------------------|---------------------|
|-----------------------------|---------------------|
|-----------------------------|---------------------|
|-----------------------------|---------------------|
|-----------------------------|---------------------|
|
|        PM             PM          PM----|
|  E     E E E   E  E   E   E   +E  S S E E E E E E
|-----------------------------|---------------------|
|-----------------------------|---------------------|
|----------9-9---9--9-------9-|-(9)-----------------|
|----------9-9---9--8-------9-|-(9)-----------------|
|--7-------7-7---7--7-------7-|-(7)---------7-------|
|--------0--------------0-----|-----0-0-6-7---7-6-4-|


   Interlude
    N.C.(E)
    Gtrs I, II
    PM------------------|   PM------------------------|   PM---
    S S S S S S S S S S S E S E   S S S S S S S S S S S E S E
||------------------------------|-----------------------------|
||o-----------------------------|-----------------------------|
||------------------------------|-----------------------------|
||------------------------------|-----------------------------|
||o-----------------------------|-----------------------------|
||--6-7-6-4-0---6-7-6-4-0---0-0-|-6-7-6-4-0---6-7-6-4-0---0-0-|


 -------------------------------------------------------------|
  S S S S S S S S S S S E S E   S S S S S S S S S S S S S S S S
|-----------------------------|----------------------------------||
|-----------------------------|---------------------------------o||
|-----------------------------|----------------------------------||
|-----------------------------|----------------------------------||
|-----------------------------|---------------------------------o||
|-6-7-6-4-0---6-7-6-4-0---0-0-|-6-7-6-4-0-0-7-9-7-6-0-0-6-7-6-0--||


    PM-------------------|   PM-------------------------|   PM---
    S  S S S S S S S S S S E S E   S  S S S S S S S S S S E S E
||-------------------------------|------------------------------|
||o------------------------------|------------------------------|
||-------------------------------|------------------------------|
||-------------------------------|------------------------------|
||o------------------------------|------------------------------|
||--9-10-9-7-0---6-7-6-4-0---0-0-|-9-10-9-7-0---6-7-6-4-0---0-0-|


 ----------------------|   PM---------------------------------------|
  S  S S S S S S S S S S E S E   S  S S S S S  S  S  S S S S S  S S S
|------------------------------|---------------------------------------||
|------------------------------|--------------------------------------o||
|------------------------------|---------------------------------------||
|------------------------------|---------------------------------------||
|------------------------------|--------------------------------------o||
|-9-10-9-7-0---6-7-6-4-0---0-0-|-9-10-9-7-0-0-10-12-10-9-0-0-9-10-9-0--||


     PM-------------------------------------------------------------------|
     S  S  S  S S S S  S S S S S S S E    S  S  S  S S S S  S S S S S S S E
||-------------------------------------|------------------------------------|
||o------------------------------------|------------------------------------|
||-------------------------------------|------------------------------------|
||-------------------------------------|------------------------------------|
||o------------------------------------|------------------------------------|
||--12-13-12-10-0-0-8-10-8-7-0-----0-0-|-12-13-12-10-0-0-8-10-8-7-0-----0-0-|


   PM---------------------------------
   S  S  S  S S S S  S S S S S S S E
|------------------------------------|
|------------------------------------|
|------------------------------------|
|------------------------------------|
|------------------------------------|
|-12-13-12-10-0-0-8-10-8-7-0-----0-0-|


 ---------------------------------------|
   S  S  S  S S S  S  S  S  S S S S S S S
|------------------------------------------||
|-----------------------------------------o||
|------------------------------------------||
|------------------------------------------||
|-----------------------------------------o||
|-12-13-12-10-0-0-13-15-13-12-0-0-7-8-7-0--||


     PM--------------------------------------------
     S  S  S  S S S  S  S  S  S S S  S  S  S  S  3x
||-----------------------------------------------||
||o---------------------------------------------o||
||-----------------------------------------------||
||-----------------------------------------------||
||o---------------------------------------------o||
||--15-16-15-13-0-0-13-15-13-12-0-0-10-12-10-12--||


 ------------------------------------------|
   S  S  S  S S S  S  S  S  S S S  S  S  S S
|---------------------------------------------|
|---------------------------------------------|
|---------------------------------------------|
|---------------------------------------------|
|---------------------------------------------|
|-15-16-15-13-0-0-13-15-13-12-0-0-10-12-10-0--|


   PM-----------------------------------------
   S  S  S  S S S  S  S  S S  S  S  S S  S S
|--------------------------------------------|
|--------------------------------------------|
|--------------------------------------------|
|--------------------------------------------|
|--------------------------------------------|
|-18-19-18-16-0-0-16-18-16-0-16-18-16-0-14-0-|


 ------------------------------------------|
   S  S  S  S S S  S  S  S S  S  S  S S  S S
|--------------------------------------------|
|--------------------------------------------|
|--------------------------------------------|
|--------------------------------------------|
|--------------------------------------------|
|-18-19-18-16-0-0-16-18-16-0-16-18-16-0-14-0-|


   PM--------------------------------------|
                                                                                     |--------7--------|
   S  S  S  S S S  S  S  S  S S S  S  S  S  S    S  S  S  S  S  S  S  S  S  S  S  S  S  S  S  S  S  S  S
|---------------------------------------------|----------------------------------------------------------|
|---------------------------------------------|----------------------------------------------------------|
|---------------------------------------------|-------------------------------------------------13-15-16-|
|---------------------------------------------|----------------------------13-14-16-13-14-16-16----------|
|---------------------------------------------|----------13-14-16-13-14-16-------------------------------|
|-19-21-19-18-0-0-18-19-18-16-0-0-16-18-16-14-|-12-14-16-------------------------------------------------|


                                       |------6-------|
   S  S  S  S  S  S  S  S  S  S  S  S  S  S  S  S  S  S
|----------------------------------------------16-18-19---|
|----------------------------16-17-19-16-17-19------------|
|----------15-16-18-15-16-18------------------------------|
|-14-16-18------------------------------------------------|
|---------------------------------------------------------|
|---------------------------------------------------------|


  E5
  Gtr III
   ~~~~~~~~~~~~~~~~~~~~~~~~~~~~~~~~~~~~~~~~~~~~~~~~~~~~~~~~~~~~
   W                             +W
|-24--------------------------|-(24)--------------------------|
|-21--------------------------|-(21)--------------------------|
|-----------------------------|-------------------------------|
|-----------------------------|-------------------------------|
|-----------------------------|-------------------------------|
|-----------------------------|-------------------------------|
|
| Gtrs I, II
|  S S S S S S S S S S S S Q      S  S S S S S S S S S S S Q
|-----------------------------|-------------------------------|
|-----------------------------|-------------------------------|
|--9-9-9-9-9---9-9-9-9-9------|---9--9-9-9-9---9-9-9-9-9------|
|--9-9-9-9-9---9-9-9-9-9------|---9--9-9-9-9---9-9-9-9-9------|
|--7-7-7-7-7---7-7-7-7-7------|---7--7-7-7-7---7-7-7-7-7------|
|--0-0-0-0-0---0-0-0-0-0------|---0--0-0-0-0---0-0-0-0-0------|


 ~~~~~~~~~~~~~~~~~~~~~~~~~~~~~~~~~~~~~
   W                             +H..                          +E
|-----------------------------|----------------------------------------|
|-23--------------------------|-(23)--------------------------(23)\----|
|-21--------------------------|-(21)--------------------------(21)\----|
|-----------------------------|----------------------------------------|
|-----------------------------|----------------------------------------|
|-----------------------------|----------------------------------------|
|
|  S S S S S S S S S S S S Q      S   S S S S S S S S S S S Q
|-----------------------------|----------------------------------------|
|-----------------------------|----------------------------------------|
|--9-9-9-9-9---9-9-9-9-9------|---9---9-9-9-9---9-9-9-9-9--------------|
|--9-9-9-9-9---9-9-9-9-9------|---9---9-9-9-9---9-9-9-9-9--------------|
|--7-7-7-7-7---7-7-7-7-7------|---7---7-7-7-7---7-7-7-7-7--------------|
|--0-0-0-0-0---0-0-0-0-0------|---0---0-0-0-0---0-0-0-0-0--------------|


   ~~~~~~~~~~~~~~~~~~~~~~~~~~~~~~~~~~~~~~~~~~~~~~~~~~~~~~~~~~~~~~~~~~~
   W                             +H                 +E     E    +Q
|-----------------------------|--------------------------------------|
|-17--------------------------|-(17)---------------(17)--------------|
|-16--------------------------|-(16)---------------(16)---16---(16)--|
|-----------------------------|---------------------------15---(15)--|
|-----------------------------|--------------------------------------|
|-----------------------------|--------------------------------------|
|
|  S S S S S S S S S S S S Q      S  S S S S S S S   S  S  S S   Q
|-----------------------------|--------------------------------------|
|-----------------------------|--------------------------------------|
|--9-9-9-9-9---9-9-9-9-9------|---9--9-9-9-9---9-9---9--9--9---------|
|--9-9-9-9-9---9-9-9-9-9------|---9--9-9-9-9---9-9---9--9--9---------|
|--7-7-7-7-7---7-7-7-7-7------|---7--7-7-7-7---7-7---7--7--7---------|
|--0-0-0-0-0---0-0-0-0-0------|---0--0-0-0-0---0-0---0--0--0---------|


 ~~~~~~~~~~~~~~~~~~~~~~~~~~~~~~~~~~~~
   W                             +W
|-----------------------------|-------------------------------------|
|-----------------------------|-------------------------------------|
|-15--------------------------|-(15)--------------------------------|
|-14--------------------------|-(14)--------------------------------|
|-----------------------------|-------------------------------------|
|-----------------------------|-------------------------------------|
|
|  S S S S S S S S S S S S Q      S  S S S S S S S S S S S   Q
|-----------------------------|-------------------------------------|
|-----------------------------|-------------------------------------|
|--9-9-9-9-9---9-9-9-9-9------|---9--9-9-9-9---9-9-9-9-9------------|
|--9-9-9-9-9---9-9-9-9-9------|---9--9-9-9-9---9-9-9-9-9------------|
|--7-7-7-7-7---7-7-7-7-7------|---7--7-7-7-7---7-7-7-7-7------------|
|--0-0-0-0-0---0-0-0-0-0------|---0--0-0-0-0---0-0-0-0-0---(18)\----|


 Theme
  E5         N.C.     E5      N.C.     E5                N.C.
                                     ~~~~~~~~~~~
  Q   Q.      q   E    Q.      Q   E Q     +Q     Q.      q   E
|-------------------|--------------------|----------------------|
|-----9------11-----|-12------11---9-9---|-(9)/---9------11-----|
|-------------------|--------------------|----------------------|
|-------------------|--------------------|----------------------|
|-------------------|--------------------|----------------------|
|-------------------|--------------------|----------------------|
|
| PM|           PM|              PM--|      PM--|           PM|
| E E E  E E  E E E    E  E E  E E E E E    E   E E  E E  E E E
|-------------------|--------------------|----------------------|
|-------------------|--------------------|----------------------|
|-----9--9-9--9-----|--9--9-9--9-------9-|--------9--9-9--9-----|
|-----9--9-9--8-----|--9--9-9--8-------9-|--------9--9-9--8-----|
|-----7--7-7--7-----|--7--7-7--7-------7-|--------7--7-7--7-----|
|-0-0-----------0-0-|------------0-0-0---|--0---0-----------0-0-|


  E6        E5                           N.C.
                     ~~
   Q.        Q.      Q    
Добавлено: 28.06.2012
Другие материалы по этой песне:

Страница создана 18.03.2012
http://primanota.ru/john-petrucci/curve-chords.htm
Привет, Гость.
Предлагаем пройти революционный курс по гитаре.
Подарок от PrimaNota.Ru, забирай!