PrimaNota.ru - самый крупный в мире бесплатный архив песенных текстов, аккордов, табулатур и нот


John Petrucci - Animate Inanimate - таба, видео

Регистрация Запомнить меня
Войти через:  Facebook Google Twitter Vk Yandex Mail.ru

John Petrucci - Animate Inanimate - таба, видео

Печатать
Просмотров: 168
Уроки эстрадного вокала в Санкт-Петербурге
Gtr I (E A D G B E) - 'Distorted [Lead]'
Gtr II (E A D G B E) - 'Distorted [Centre]'
Gtr III (E A D G B E) - 'Distorted [Left]'
Gtr IV (E A D G B E) - 'Distorted [Right]'
Gtr V (E A D G B E) - 'Clean [Left]'
Gtr VI (E A D G B E) - 'Clean [Right]'


 Intro
  Moderately/Fast Q=134
  N.C.
 2/2
  Gtr II
  E   +E  E E E E E E     +E  E E E E E S S E
|-----------------------|---------------------|
|-----------------------|---------------------|
|-6b7r(6)-----------6b7r|=(6)-----------------|
|---------7---5h7-------|-----7---5h7---------|
|-----------0-----0-----|-------0-----0-4-5-7-|
|-----------------------|---------------------|


                     ~~~~~~~~
  E   +E  E E E E E  E   +E  E E E E E T T S E
|----------------------|-------------------------|
|----------------------|-------------------------|
|-6b7r(6)--------------|-------------------------|
|---------7---5h7---/7-|-(7)---------3-2h3p2-----|
|-----------0-----0----|-----0-1-4s5---------5---|
|----------------------|-------------------------|


  E   +E  E E E E E E     +E  E E E   E E  E E
|-----------------------|----------------------|
|-----------------------|----------------------|
|-6b7r(6)-----------6b7r|=(6)---6h7-/12s9-\3p2-|
|---------7---5h7-------|-----7----------------|
|-----------0-----0-----|----------------------|
|-----------------------|----------------------|


                              Gtrs III, IV
                     ~~~~~~~~
                                                  |-3-|
  E   +E  E E E E E  E   +Q   S S S S S S S S S S S S S
|----------------------|----------------------------------||
|----------------------|----------------------------------||
|-6b7r(6)--------------|----------------------------------||
|---------7---5h7---/7-|-(7)--------3-5-6-5-3-------------||
|-----------0-----0----|------4-5-7-----------7-5-4-5-7---||
|----------------------|----------------------------------||


         N.C.
  Gtr I
                                           ~~~
   a      +H            +Q     +E   E      H.            E    E
|-15b17==(15)----------(15)r==(15)------|-----------------------|
|----------------------------------17---|-17------------15---17-|
|---------------------------------------|-----------------------|
|---------------------------------------|-----------------------|
|---------------------------------------|-----------------------|
|---------------------------------------|-----------------------|
|
| Gtr II
|                                          ~~~
|  a      +H            +Q     +E   E      H.            E    E
|---------------------------------------|-----------------------|
|-15b17==(15)----------(15)r==(15)-14---|-14-----------------14-|
|---------------------------------------|---------------15------|
|---------------------------------------|-----------------------|
|---------------------------------------|-----------------------|
|---------------------------------------|-----------------------|
|
|        Gtrs III, IV
|                    PM         PM              PM    PM-----|
|          E   +E  E E   E  E   E   E     +E  E E E E E  S S  E
|---------------------------------------|-----------------------|
|---------------------------------------|-----------------------|
|----------6b7r(6)------------------6b7r|=(6)-------------------|
|------------------7-----5h=7-----------|-----7---5h7-----------|
|--------------------0----------0-------|-------0-----0--4-5--7-|
|---------------------------------------|-----------------------|


   ~~~~~                       ~~~
   H.               +E    E    H.            E      E
|---------------------------|-------------------------|
|-14---------------(14)\-10-|-10------------11--------|
|---------------------------|----------------------12-|
|---------------------------|-------------------------|
|---------------------------|-------------------------|
|---------------------------|-------------------------|
|
|  ~~~~~                       ~~~
|  H.               +E    E    H.            E      E
|---------------------------|-------------------------|
|---------------------------|-------------------------|
|-14---------------(14)\--9-|--9------------10--------|
|---------------------------|----------------------12-|
|---------------------------|-------------------------|
|---------------------------|-------------------------|
|
|            PM      PM   ~~~~~~~~
|  E   +E  E E E E   E    E   +E  E E E E E  T T S  E
|---------------------------|-------------------------|
|---------------------------|-------------------------|
|--6b7r(6)------------------|-------------------------|
|----------7---5h7-------/7-|-(7)---------3--2h3p2----|
|------------0-------0------|-----0-1-4s5-----------5-|
|---------------------------|-------------------------|


   ~~~~~                       ~~~
   Q.         E  Q    Q        Q.       E   Q    Q
|---------------------------|-------------------------|
|-14---------11-11---10-----|-------------------------|
|---------------------------|-12------\10--10---12----|
|---------------------------|-------------------------|
|---------------------------|-------------------------|
|---------------------------|-------------------------|
|
|  ~~~~~                       ~~~
|  Q.         E  Q    Q        Q.       E   Q    Q
|---------------------------|-------------------------|
|-10------------------------|-------------------------|
|------------12-12---10-----|--9-------\7---7----9----|
|---------------------------|-------------------------|
|---------------------------|-------------------------|
|---------------------------|-------------------------|
|
|             PM      PM
|  E   +E  E  E  E E  E E     +E  E E   E   E E  E  E
|---------------------------|-------------------------|
|---------------------------|-------------------11p10-|
|--6b7r(6)--------------6b7r|=(6)---6h==7-/12s9-\3p=2-|
|----------7-----5h7--------|-----7-------------------|
|-------------0-------0-----|-------------------------|
|---------------------------|-------------------------|


   ~~~~~~~~~~~~~~~~~~~~      ~~~
   H.              +E   E    W
|-------------------------|------------------------------------------||
|-------------------------|------------------------------------------||
|-\9---------------(9)-\6-|--6---------------------------------------||
|-------------------------|------------------------------------------||
|-------------------------|------------------------------------------||
|-------------------------|------------------------------------------||
|
|  ~~~~~~~~~~~~~~~~~~~~      ~~~
|  H.              +E   E    W
|-------------------------|------------------------------------------||
|-------------------------|------------------------------------------||
|-\6---------------(6)-\2-|--2---------------------------------------||
|-------------------------|------------------------------------------||
|-------------------------|------------------------------------------||
|-------------------------|------------------------------------------||
|
|            PM     PM  ~~~~~~~~
|                                |----6----| |----6----| |----6----|
|  E   +E  E E E E  E   E   +Q   S S S S S S S S S S S S S S S S S S
|-------------------------|------------------------------------------||
|-------------------------|------------------------------------------||
|--6b7r(6)----------------|------------------------------------------||
|----------7---5h7-----/7-|-(7)--------3-5-6-5-3---------------------||
|------------0------0-----|------4-5-7-----------7-5-4-0-------------||
|-------------------------|------------------------------6-6-5-5-4-4-||


  N.C.                                                     A5  BbG5  F5G5E5
  Gtrs III, IV
                                      ~
  E E E E E E  q      E  E E E E E  E E   +E   E E E E E E E   E E E E E E E E
|------------------|--------------------|--------------------|-----------------|
|------------------|--------------------|--------------------|-----------------|
|------------------|--------------------|--------------------|-----------------|
|------------------|--------------------|--------------------|-----------------|
|-------5-4--------|-----------5-4-/8-7-|-(7)\-----5-4-----7-|-8-5-x-3-5-2-x-x-|
|-3-5-6-----5---|--3-5-6----------|------3-6-----5-x-5-|-6-3-x-1-3-0-x-x-|


  N.C.
                                      ~
  E E E E E E  q      E  E E E E E  E E
|------------------|--------------------|
|------------------|--------------------|
|------------------|--------------------|
|------------------|--------------------|
|-------5-4--------|-----------5-4-/8-7-|
|-3-5-6-----5---|--3-5-6----------|


                                    BbA5
                            PM    PM
  +E   E E E E E E E    E E E E E E E E
|--------------------|------------------|
|--------------------|------------------|
|--------------------|------------------|
|--------------------|-/8-7-------------|
|-(7)\-------5-4-----|--------8-7---8-7-|
|------3-5-6-----6-5-|------0-----0-6-5-|


  N.C.
                                                ~
  E E  E E   E   E    q         E  E E E E E  E E
|----------------------------|--------------------|
|----------------------------|--------------------|
|----------------------------|--------------------|
|----------------------------|--------------------|
|--------5---4---------------|-----------5-4-/8-7-|
|-3-5--6---------5--------|--3-5-6----------|
|
| Gtr V
| Q    E E   E   E    E   E    +W
|--------0------(0)------(0)-|-(0)----------------|
|------3----(3)------(3)-----|--------------------|
|----------------------------|--------------------|
|----------------------------|--------------------|
|----------------------------|--------------------|
|----------------------------|--------------------|
|
| Gtr VI
| Q    E E   E   E    E   E    +W
|--------0------(0)------(0)-|-(0)----------------|
|-----15---(15)-----(15)-----|--------------------|
|----------------------------|--------------------|
|----------------------------|--------------------|
|----------------------------|--------------------|
|----------------------------|--------------------|


                            A5    Bb5 G5   F5G5   E5
  +E   E  E E   E   E    E   E     E  E  E E   E   E    E   E
|-------------------------------|------------------------------|
|-------------------------------|------------------------------|
|-------------------------------|------------------------------|
|-------------------------------|------------------------------|
|-(7)\------5---4------------7--|--8--5--x-3---5---2----x---x--|
|------3--6---------5----x---5--|--6--3--x-1---3---0----x---x--|
|
|  Q      E E   E   E    E   E    +Q     E E   E   E    E   E
|-----------0------(0)------(0)-|-(0)------0------(0)------(0)-|
|---------3----(3)------(3)-----|--------6----(6)------(6)-----|
|-------------------------------|------------------------------|
|-------------------------------|------------------------------|
|-------------------------------|------------------------------|
|-------------------------------|------------------------------|
|
|  Q      E E   E   E    E   E    +Q     E E   E   E    E   E
|-----------0------(0)------(0)-|-(0)------0------(0)------(0)-|
|--------15---(15)-----(15)-----|-------18---(18)-----(18)-----|
|-------------------------------|------------------------------|
|-------------------------------|------------------------------|
|-------------------------------|------------------------------|
|-------------------------------|------------------------------|


  N.C.
                                                ~
  E E  E E   E   E    E   E     E  E E E E E  E E
|----------------------------|--------------------|
|----------------------------|--------------------|
|----------------------------|--------------------|
|----------------------------|--------------------|
|--------5---4---------------|-----------5-4-/8-7-|
|-3-5--6---------5-----|--3-5-6----------|
|
| Q    E E   E   E    E   E    +W
|--------0------(0)------(0)-|-(0)----------------|
|------3----(3)------(3)-----|--------------------|
|----------------------------|--------------------|
|----------------------------|--------------------|
|----------------------------|--------------------|
|----------------------------|--------------------|
|
| Q    E E   E   E    E   E    +W
|--------0------(0)------(0)-|-(0)----------------|
|-----15---(15)-----(15)-----|--------------------|
|----------------------------|--------------------|
|----------------------------|--------------------|
|----------------------------|--------------------|
|----------------------------|--------------------|


                                                      A5   Bb5
                                         PM        PM
  +E   E  E E   E   E    E   E     E  E  E E   E   E    E   E
|-------------------------------|------------------------------||
|-------------------------------|------------------------------||
|-------------------------------|------------------------------||
|-------------------------------|-/8--7------------------------||
|-(7)\----------5---4-----------|----------8---7--------7---8--||
|------3--5-6------------6---5--|--------0---------0----5---6--||
|
|  Q      E E   E   E    E   E    +Q     E E   E   E    E   E
|-----------0------(0)------(0)-|-(0)------0------(0)------(0)-||
|---------3----(3)------(3)-----|--------8----(8)------(8)-----||
|-------------------------------|------------------------------||
|-------------------------------|------------------------------||
|-------------------------------|------------------------------||
|-------------------------------|------------------------------||
|
|  Q      E E   E   E    E   E    +Q     E E   E   E    E   E
|-----------0------(0)------(0)-|-(0)------0------(0)------(0)-||
|--------15---(15)-----(15)-----|-------20---(20)-----(20)-----||
|-------------------------------|------------------------------||
|-------------------------------|------------------------------||
|-------------------------------|------------------------------||
|-------------------------------|------------------------------||


    N.C.
    Gtr II
    E Q  E E E E E   E Q  E E E E E   E Q  E E E E E   E E E E E E Q
||-----------------|----------------|----------------|------------------||
||o----------------|----------------|----------------|-----------------o||
||----2----2h3---0h|=2-2----2h3---0h|=2-2----2h3---0h|=2----------------||
||-----------------|----------------|----------------|-----2h3---0h2----||
||o-0----0-----0---|------0-----0---|------0-----0---|---0-----0-------o||
||-----------------|----------------|----------------|------------------||


    Gtrs III, IV
           ~~~          ~~~
     S  S  E.  S  S  S  Q    S  S  S  S
||--------------------------------------|
||o-15p11-14----------------------------|
||------------15-12-15-14---15p12-14p12-|
||--------------------------------------|
||o-------------------------------------|
||--------------------------------------|
|
|   Gtr II
|    E     Q      E     E E  E     E
||--------------------------------------|
||o-------------------------------------|
||---------2------------2h3--------0h===|
||--------------------------------------|
||o--0------------0----------0----------|
||--------------------------------------|


         ~~                                           ~~        ~~~
   S  S  Q   S  S  S  T  T  S  S  S  S  S  S    S  S  Q   S  S  Q    S  S  S  S
|-----------17p13-15-17p15p13----13----------|----18-17---------------------------|
|-----------------------------17----15-17-14-|-15--------18p15-17---17p14-15p14---|
|----12--------------------------------------|------------------------------------|
|-15----14-----------------------------------|------------------------------------|
|--------------------------------------------|------------------------------------|
|--------------------------------------------|------------------------------------|
|
|  E     Q   E     E        E     E     E       E     Q   E     E E  E     E
|--------------------------------------------|------------------------------------|
|--------------------------------------------|------------------------------------|
|--2-----2---------2h=======3-----------0h===|==2-----2---------2h3--------0h=====|
|--------------------------------------------|------------------------------------|
|------------0--------------------0----------|------------0----------0------------|
|--------------------------------------------|------------------------------------|


         ~~                     ~~          ~~~          ~~~
   S  S  Q    S  S  S  S  S  S  Q     S  S  E.  S  S  S  Q    S  S  S  S
|----------------------------------|-------------------------18p15-17p15-|
|----14----------------------------|-15p11-14----------------------------|
|-15----14---15p12-14p12----12-----|-----------15-12-15-14---------------|
|------------------------15----14--|-------------------------------------|
|----------------------------------|-------------------------------------|
|----------------------------------|-------------------------------------|
|
|  E     E E  E     E     E     Q     E     Q      E     E E  E     E
|----------------------------------|-------------------------------------|
|----------------------------------|-------------------------------------|
|--2-------------------------------|--------2------------2h3--------0h===|
|----------2h=3-----------0h====2--|-------------------------------------|
|--------0----------0--------------|--0------------0----------0----------|
|----------------------------------|-------------------------------------|


         ~~
   S  S  Q   S  S  S  T  T  S  S  S  S  S  S
|----15-----22p18-21-22p21p18----18----------|
|-18----17--------------------22----20-22-18-|
|--------------------------------------------|
|--------------------------------------------|
|--------------------------------------------|
|--------------------------------------------|
|
|  E     Q   E     E        E     E     E
|--------------------------------------------|
|--------------------------------------------|
|--2-----2---------2h=======3-----------0----|
|--------------------------------------------|
|------------0--------------------0----------|
|--------------------------------------------|


         ~~        ~~~                      ~~                  ~~
   S  S  Q   S  S  Q    S  S  S  S    S  S  Q    S S  S S  S S  Q
|----22-21--18p15-17---15p12-13p12-|----12-------------------------|
|-20-------------------------------|-15----14----------------------|
|----------------------------------|------------12p9-10p9----9-----|
|----------------------------------|----------------------12---11--|
|----------------------------------|-------------------------------|
|----------------------------------|-------------------------------|
|
|  E     Q   E     E E  E     E       E     E E  E    E    E    Q
|----------------------------------|-------------------------------|
|----------------------------------|-------------------------------|
|--2-----2---------2h3--------0h===|==2----------------------------|
|----------------------------------|----------2h=3---------0h===2--|
|------------0----------0----------|--------0---------0------------|
|----------------------------------|-------------------------------|


         ~~~          ~~~
   S  S  E.  S  S  S  Q    S  S  S  S
|--------------------------------------|
|-15p11-14-----------------------------|
|-----------15-14-15-12---15p12-14p12--|
|--------------------------------------|
|--------------------------------------|
|--------------------------------------|
|
|  E     Q      E     E E  E     E
|--------------------------------------|
|--------------------------------------|
|--------2------------2h3--------0h====|
|--------------------------------------|
|--------------------------------------|
|--3------------3----------3-----------|


                     ~~~~~~~
                                              |--3--|
   S  S  S  S  S  S  E  +E  S  S  T  T  T  T  S  S  S
|--------------------------17-13-15h17p15p13----------|
|--------------------------------------------17p15p14-|
|----12-------12-14-12-(12)---------------------------|
|-15----14-15-----------------------------------------|
|-----------------------------------------------------|
|-----------------------------------------------------|
|
|  E     Q           E   E  E     E           E
|-----------------------------------------------------|
|-----------------------------------------------------|
|--2-----2---------------2h=3-----------------0h======|
|-----------------------------------------------------|
|-----------------------------------------------------|
|--------------------3------------3-------------------|


                     ~~                                                                  ~~~
   |------6-------|
   S  S  S  S  S  S  Q    S  S  S  S  S  S  S  S    S  S  S  S  S  S  S  S  S  S  S  S   Q
|------------------------------------------------|--------------------------------------------||
|------------------------18-15-17-18-15-14-------|-------------------------------18-15-/22---o||
|-15p14p12----------14---------------------17-16-|-15-14-------------18-17-16-15--------------||
|----------15p14p12------------------------------|-------17-16-15-14--------------------------||
|------------------------------------------------|-------------------------------------------o||
|------------------------------------------------|--------------------------------------------||
|
|  E        Q          E  E     E     E     E       E     E     E     E     E     E      Q
|------------------------------------------------|--------------------------------------------||
|------------------------------------------------|-------------------------------------------o||
|--2--------2-------------2h====3-----------0h===|==2-----------------------------------------||
|------------------------------------------------|--------------2h====3-----------0h=====2----||
|------------------------------------------------|-------------------------------------------o||
|----------------------1--------------1----------|--------0-----------------0-----------------||


  N.C.
  Gtrs III, IV
  E E  E E   E   E    Q         E  E E E E E  E E
|----------------------------|--------------------|
|----------------------------|--------------------|
|----------------------------|--------------------|
|----------------------------|--------------------|
|--------5---4---------------|-----------5-4-/8-7-|
|-3-5--6---------5--------|--3-5-6----------|
|
| Gtr V
| Q    E E   E   E    E   E    +W
|--------0------(0)------(0)-|-(0)----------------|
|------3----(3)------(3)-----|--------------------|
|----------------------------|--------------------|
|----------------------------|--------------------|
|----------------------------|--------------------|
|----------------------------|--------------------|
|
| Gtr VI
| Q    E E   E   E    E   E    +W
|--------0------(0)------(0)-|-(0)----------------|
|-----15---(15)-----(15)-----|--------------------|
|----------------------------|--------------------|
|----------------------------|--------------------|
|----------------------------|--------------------|
|----------------------------|--------------------|


                            A5    Bb5 G5   F5G5   E5
  +E   E  E E   E   E    E   E     E  E  E E   E   E    E   E
|-------------------------------|------------------------------||
|-------------------------------|------------------------------||
|-------------------------------|------------------------------||
|-------------------------------|------------------------------||
|-(7)\------5---4------------7--|--8--5--x-3---5---2----x---2--||
|------3--6---------5----x---5--|--6--3--x-1---3---0----x---0--||
|
|  Q      E E   E   E    E   E    +Q     E E   E   E    E   E
|-----------0------(0)------(0)-|-(0)------0------(0)------(0)-||
|---------3----(3)------(3)-----|--------6----(6)------(6)-----||
|-------------------------------|------------------------------||
|-------------------------------|------------------------------||
|-------------------------------|------------------------------||
|-------------------------------|------------------------------||
|
|  Q      E E   E   E    E   E    +Q     E E   E   E    E   E
|-----------0------(0)------(0)-|-(0)------0------(0)------(0)-||
|--------15---(15)-----(15)-----|-------18---(18)-----(18)-----||
|-------------------------------|------------------------------||
|-------------------------------|------------------------------||
|-------------------------------|------------------------------||
|-------------------------------|------------------------------||


  $
  $$
         F                G            Am          G           F
 4/4
  Gtr I
           ~~~~            ~~~~~~~~~~~~~~~~~~~~~~~~~~~~~
   a      +Q     +E   +E   Q.      E    +Q.      E  +Q.         S  S
|-19b20==(19)---(19)r(19)-19------17-|-(17)--------------------------|
|------------------------------------|----------17-(17)--------15-17-|
|------------------------------------|-------------------------------|
|------------------------------------|-------------------------------|
|------------------------------------|-------------------------------|
|------------------------------------|-------------------------------|
|
| Gtr III
|                 ~~~~~~~~~~~~  ~~~~~~~~~~~~  ~~~~~~~~~~
|          E  E   Q       +E  E Q       +E  E Q     +E     E E  E
|------------------------------------|-------------------------------|
|------------------------------------|-------------------------------|
|------------------------------------|-------------------------------|
|-----------------3-------(3)--------|-------------------------------|
|-------------3-----------------5----|--(5)---7-----(7)------5-------|
|----------1------------------3------|------5--------------3----1----|
|
| Gtr IV
|          PM---|             PM|           PM|
|                                                    |-3-|
|          E  E   E    E   E  E E  E     E  E E  E   S S S E E  E
|------------------------------------|-------------------------------|
|------------------------------------|-------------------------------|
|----------------------2---4-------4-|---5-------5---4h5p4-----------|
|-----------------3------------------|---------------------5---------|
|-------------3-----------------5----|--------7--------------5-------|
|----------1------------------3------|------5-------------------1----|


                            G                   A5     G5     E5      F
                                          ~~~~~~~~~~~~~~~~~~~~
                                 |--3--|
   E   a      +E   +E   +E   E   S  S  S  Q      +H       +E   +E   Q
|---------------------------------------------|-------------------------|
|-18--17b18==(17)-(17)r(17)-15--15h17p15------|-------------------------|
|----------------------------------------17---|-(17)-----(17)-(17)\-----|
|---------------------------------------------|-------------------------|
|---------------------------------------------|-------------------------|
|---------------------------------------------|-------------------------|
|
|                   ~~~~~~~~~~~~~~~~
| +E           E    Q       +E   Q.               Q.   E  +E    Q     E
|---------------------------------------------|--------3--(3)-----------|
|---------------------------------------------|--------3--(3)-----------|
|---------------------------------------------|---2----0--(0)-----------|
|-------------------3-------(3)---------------|---2----0--(0)---2-------|
|--------------3------------------------------|---0-------------2-------|
|-(1)----------------------------3------------|--------3--(3)---0-----1-|
|
|              PM-|              PM
| +E           E    E    E   E   E        E E     Q.   E  +E    Q     E
|---------------------------------------------|--------3--(3)-----------|
|---------------------------------------------|--------3--(3)-----------|
|------------------------2---4------------5-4-|---2----0--(0)-----------|
|-------------------3-------------------------|---2----0--(0)---2-------|
|--------------3------------------------------|---0-------------2-------|
|-(1)----------------------------3------------|--------3--(3)---0-----1-|


                          G                         Am                   G5      F
           ~~~~            ~~~                                            ~~~
   a      +Q     +E   +E   Q     +E    a      +E     +E   +E   +E   S  S  H
|-19b20==(19)---(19)r(19)-19----(19)\-20b22==(20)-|-(20)-(20)r(20)-20-19-17--------|
|-------------------------------------------------|--------------------------------|
|-------------------------------------------------|--------------------------------|
|-------------------------------------------------|--------------------------------|
|-------------------------------------------------|--------------------------------|
|-------------------------------------------------|--------------------------------|
|
|                 ~~~~~~~~~~~~    ~~~~~~~~~~~~~~~~~~~~~~~       ~~~~~~~~~~~~~
|         +E  E   Q       +E  E   Q                  +E    E    Q        +E  E E E
|-------------------------------------------------|--------------------------------|
|-------------------------------------------------|--------------------------------|
|-------------------------------------------------|--------------------------------|
|-----------------3-------(3)---------------------|--------------------------------|
|-------------3-------------------5---------------|--(5)--------7--------(7)---5---|
|---------(1)-----------------3-------------------|--------5-----------------3---1-|
|
|             PM|             PM|                          PM-|                  ~~~
|         +E  E   E    E   E  E   E            E      E    E    E   E     E  E E E
|-------------------------------------------------|--------------------------------|
|-------------------------------------------------|--------------------------------|
|----------------------2---4-------------------4--|---5-------------5-----7--4---5-|
|-----------------3-------------------------------|----------------------------5---|
|-------------3-------------------5---------------|-------------7------------------|
|---------(1)-----------------3-------------------|--------5-----------------------|


                   (Em)                 A5     Asus2      Am                F
                              |--3--|             |------6-------|  |------6-------|
   E     +E   E  E  E   E  E  S  S  S    +H       S  S  S  S  S  S  S  S  S  S  S  S
|-19b20r(19)-17-----------------------|-------------------12-13-15-13-15-17-15-17-19---|
|---------------20-18--17-18-17h18p17-|-(17)-----12-13-15------------------------------|
|-------------------------------------|------------------------------------------------|
|-------------------------------------|------------------------------------------------|
|-------------------------------------|------------------------------------------------|
|-------------------------------------|------------------------------------------------|
|
|             ~~~~~~~~~                                    ~~
| +E      E   Q    +E   E  E  E           Q.   E  E        Q                 E
|-------------------------------------|------------------------------------------------|
|-------------------------------------|------------------------------------------------|
|-------------------------------------|---2----4-----------5---------------------------|
|-------------3----(3)----------------|---2--------------------------------------------|
|---------3-------------------2-------|---0-------0------------------------------------|
|-(1)-------------------0--3----------|--------------------------------------1---------|
|
|~~~~~~~~                                                  ~~
| +E      E   E  E  E   E  E  E           Q.   E  E        Q                 E
|-------------------------------------|------------------------------------------------|
|-------------------------------------|------------------------------------------------|
|-(5)------------5--4-----------------|---2----4-----------5---------------------------|
|-------------------------------------|---2--------------------------------------------|
|-------------3---------------2-------|---0-------0------------------------------------|
|---------1-------------0--3----------|--------------------------------------1---------|


                          G           Am        G/B
           ~~~~            ~~~~~~~~~~~~~~~~~~~~~~~~~~
   a      +Q     +E   +E   H           H          Q.      E
|-19b20==(19)---(19)r(19)-19--------|-20--------/22------19-|
|-----------------------------------|-----------------------|
|-----------------------------------|-----------------------|
|-----------------------------------|-----------------------|
|-----------------------------------|-----------------------|
|-----------------------------------|-----------------------|
|
|                 ~~~~~~~~~~~~  ~~~~~~~~~~  ~~~~~~~~~  ~~~~~~
|         +E  E   Q       +E  E Q     +E  E Q    +E  E Q
|-----------------------------------|-----------------------|
|-----------------------------------|-----------------------|
|-----------------------------------|-----------------------|
|-----------------3-------(3)-------|------------------5----|
|-------------3-----------------5---|-(5)---7----(7)--------|
|---------(1)-----------------3-----|-----5----------7------|
|
|             PM|             PM|         PM|        PM|
|         +E  E   E    E   E  E E E    E  E E E   E  E E  E
|-----------------------------------|-----------------------|
|-----------------------------------|-----------------------|
|----------------------2---4------4-|--5------5---7-------7-|
|-----------------3-----------------|------------------5----|
|-------------3-----------------5---|-------7---------------|
|---------(1)-----------------3-----|-----5----------7------|


  N.C.                                  C
 2/4                             4/4
                             ~~~~~~~~~~~
       |---3---|
   E   S  S    S  E  a      +E     +H            E   E  E  E
|-------------19h22-22b24==(22)-|-(22)r---------20--22-24-24b25===||
|-20-----20---------------------|---------------------------------||
|-----19------------------------|---------------------------------||
|-------------------------------|---------------------------------||
|-------------------------------|---------------------------------||
|-------------------------------|---------------------------------||
|
|~~~~~                                       ~~~~~~~
| +E   S    S     Q                 E   E E  E  +H
|-------------------------------|---------------------------------||
|-------------------------------|---------------------------------||
|------0----7-------------------|---------------------------------||
|-(5)---------------------------|---------------------------------||
|-------------------------------|---------7-10-(10)---------------||
|-------------------------------|-------8-------------------------||
|
|                            ~~~~~~~~~~~PM--|
|  E   S    S     E          E     +E   E E  E   E   E  E  E
|-------------------------------|---------------------------------||
|--8\---------------------------|---------------------------------||
|------0----7----10----------9--|--(9)---------------7--9-10------||
|-------------------------------|---------------10----------------||
|-------------------------------|---------7-10--------------------||
|-------------------------------|-------8-------------------------||


  Dm            Bb               C              Am
                                  ~~~~~~~~~~~~~~~~~~~~~~~~~~~~
   +H.                +E   +E     H.                  +E   E
|-(24)---------------(24)r(24)-|-24------------------(24)\22-|
|------------------------------|-----------------------------|
|------------------------------|-----------------------------|
|------------------------------|-----------------------------|
|------------------------------|-----------------------------|
|------------------------------|-----------------------------|
|
|       ~~~       ~~                  ~~          ~~
|   E   Q.      E Q.              E   Q    +E   E Q.
|------------------------------|-----------------------------|
|------------------------------|-----------------------------|
|------------------------------|-----------------------------|
|------------------------------|-----------------------------|
|------12---------8------------|-----10---(10)\---7----------|
|-/10-----------6--------------|--8-------------5------------|
|
|   E   E  E  E E E    E    E     E   E E   E   E E    E   E
|------------------------------|-----------------------------|
|------------------------------|-----------------------------|
|----------9s10--------7s===9--|--------9s==5----------5s==7-|
|-------7----------------------|-----------------------------|
|-----------------8------------|-----10-----------7----------|
|-/10-----------6--------------|--8-------------5------------|


  Bb            Gm             F
                              3/4
 ~~~~~~~~~~~~~~~~~~~~~~~~~~~~~~~~~~~
   +H.                +E   E    +H.
|-(22)---------------(22)\20-|-(20)------------|
|----------------------------|-----------------|
|----------------------------|-----------------|
|----------------------------|-----------------|
|----------------------------|-----------------|
|----------------------------|-----------------|
|
|      ~          ~~                  ~
|   E  Q   +E   E Q.             E  E H
|----------------------------|-----------------|
|----------------------------|-----------------|
|----------------------------|-----------------|
|----------------------------|--------3--------|
|------8---(8)\---5----------|------3----------|
|---6-----------3------------|---1-------------|
|
|   E  E E  E   E E    E   E     E  E E E E E
|----------------------------|-----------------|
|----------------------------|-----------------|
|--------7s=3----------3s==2-|----------2-4-5--|
|-----------------0----------|--------3--------|
|------8---------------------|------3----------|
|---6-----------3------------|---1-------------|


                                                  To Coda
                                                  To Coda
  Am          Bb                       C                        G5
 2/4         3/4                                               2/4
   ~~~~~~~~~~~~~~~~                                              ~~~
   H            H.               a      +H           +E   +E     H
|-20--------|-/22-------------|-22b24==(22)---------(22)r(22)-|-22----------||
|-----------|-----------------|-------------------------------|-------------||
|-----------|-----------------|-------------------------------|-------------||
|-----------|-----------------|-------------------------------|-------------||
|-----------|-----------------|-------------------------------|-------------||
|-----------|-----------------|-------------------------------|-------------||
|
|    ~~              ~                          ~~~~~~~~~~~~~~~~~~~~
|  E Q.         E  E H                   E   E  H                Q.    +E
|-----------|-----------------|-------------------------------|-------------||
|-----------|-----------------|-------------------------------|-------------||
|-----------|-----------------|-------------------------------|-------------||
|-----------|--------8--------|----------------10-------------|-------------||
|----7------|------8----------|-------------10----------------|-10----(10)\-||
|-/5--------|---6-------------|----------8--------------------|-------------||
|
|                                                                ~~~
|  E E  E E     E  E E E E  E            E   E  E E   E    E     Q.    +E
|-----------|-----------------|-------------------------------|-------------||
|-----------|-----------------|-------------------------------|-15----(15)\-||
|-------5-7-|----------7-9-10-|-------------------9--10---12--|-12----(12)\-||
|-----------|--------8--------|----------------10-------------|-------------||
|----7------|------8----------|-------------10----------------|-------------||
|--5--------|---6-------------|----------8--------------------|-------------||


         N.C.
 2/2
  Gtr I
                                           ~~~
   a      +H            +Q     +E   E      H.            E    E
|-15b17==(15)----------(15)r==(15)------|-----------------------|
|----------------------------------17---|-17------------15---17-|
|---------------------------------------|-----------------------|
|---------------------------------------|-----------------------|
|---------------------------------------|-----------------------|
|---------------------------------------|-----------------------|
|
| Gtr II
|                                          ~~~
|  a      +H            +Q     +E   E      H.            E    E
|---------------------------------------|-----------------------|
|-15b17==(15)----------(15)r==(15)-14---|-14-----------------14-|
|---------------------------------------|---------------15------|
|---------------------------------------|-----------------------|
|---------------------------------------|-----------------------|
|---------------------------------------|-----------------------|
|
| Gtrs III, IV
|                    PM         PM              PM    PM-----|
|          E   +E  E E   E  E   E   E     +E  E E E E E  S S  E
|---------------------------------------|-----------------------|
|---------------------------------------|-----------------------|
|----------6b7r(6)------------------6b7r|=(6)-------------------|
|------------------7-----5h=7-----------|-----7---5h7-----------|
|--------------------0----------0-------|-------0-----0--4-5--7-|
|---------------------------------------|-----------------------|


   ~~~~~                       ~~~
   H.               +E    E    H.            E      E
|---------------------------|--------------------------|
|-14---------------(14)\-10-|-10------------11---------|
|---------------------------|----------------------12--|
|---------------------------|--------------------------|
|---------------------------|--------------------------|
|---------------------------|--------------------------|
|
|  ~~~~~                       ~~~
|  H.               +E    E    H.            E      E
|---------------------------|--------------------------|
|---------------------------|--------------------------|
|-14---------------(14)\--9-|--9------------10---------|
|---------------------------|----------------------12--|
|---------------------------|--------------------------|
|---------------------------|--------------------------|
|
|            PM      PM   ~~~~~~~~
|  E   +E  E E E E   E    E   +E  E E E E E  T T S  E
|---------------------------|--------------------------|
|---------------------------|--------------------------|
|--6b7r(6)------------------|--------------------------|
|----------7---5h7-------/7-|-(7)---------3--2h3p2-----|
|------------0-------0------|-----0-1-4s5-----------5--|
|---------------------------|--------------------------|


   ~~~~~                            ~~~
   Q.         E  +E  S  S  Q        Q.       E   Q    Q
|--------------------------------|-------------------------|
|-14---------11-(11)14p11s10-----|-------------------------|
|--------------------------------|-12------\10--10---12----|
|--------------------------------|-------------------------|
|--------------------------------|-------------------------|
|--------------------------------|-------------------------|
|
|  ~~~~~                            ~~~
|  Q.         E  +E  S  S  Q        Q.       E   Q    Q
|--------------------------------|-------------------------|
|-10-----------------------------|-------------------------|
|------------12-(12)14p12s10-----|--9-------\7---7----9----|
|--------------------------------|-------------------------|
|--------------------------------|-------------------------|
|--------------------------------|-------------------------|
|
|             PM           PM
|  E   +E  E  E   E  E     E E     +E  E E   E   E E  E  E
|--------------------------------|-------------------------|
|--------------------------------|-------------------11p10-|
|--6b7r(6)-------------------6b7r|=(6)---6h==7-/12s9-\3p=2-|
|----------7------5h=7-----------|-----7-------------------|
|-------------0------------0-----|-------------------------|
|--------------------------------|-------------------------|


   ~~~~~~~~~~~~~~~~~~~~      ~~~
   H.              +E   E    W
|-------------------------|--------------------------------------------||
|-------------------------|--------------------------------------------||
|-\9---------------(9)-\6-|--6-----------------------------------------||
|-------------------------|--------------------------------------------||
|-------------------------|--------------------------------------------||
|-------------------------|--------------------------------------------||
|
|  ~~~~~~~~~~~~~~~~~~~~      ~~~
|  H.              +E   E    W
|-------------------------|--------------------------------------------||
|-------------------------|--------------------------------------------||
|-\6---------------(6)-\2-|--2-----------------------------------------||
|-------------------------|--------------------------------------------||
|-------------------------|--------------------------------------------||
|-------------------------|--------------------------------------------||
|
|            PM     PM  ~~~~~~~~
|                                |----6----| |----6----| |----6----|
|  E   +E  E E E E  E   E   +Q   S S S S S S S S S S S S S S S S S S
|-------------------------|--------------------------------------------||
|-------------------------|--------------------------------------------||
|--6b7r(6)----------------|--------------------------------------------||
|----------7---5h7-----/7-|-(7)--------3-5-6-5-3-----------------------||
|------------0------0-----|------4-5-7-----------7-5-4-0---------------||
|-------------------------|------------------------------6-6-5-5-4-4---||


  N.C.
  Gtrs III, IV
                                                ~
  E E  E E   E   E    q         E  E E E E E  E E
|----------------------------|--------------------|
|----------------------------|--------------------|
|----------------------------|--------------------|
|----------------------------|--------------------|
|--------5---4---------------|-----------5-4-/8-7-|
|-3-5--6---------5--------|--3-5-6----------|
|
| Gtr V
| Q    E E   E   E    E   E    +W
|--------0------(0)------(0)-|-(0)----------------|
|------3----(3)------(3)-----|--------------------|
|----------------------------|--------------------|
|----------------------------|--------------------|
|----------------------------|--------------------|
|----------------------------|--------------------|
|
| Gtr VI
| Q    E E   E   E    E   E    +W
|--------0------(0)------(0)-|-(0)----------------|
|-----15---(15)-----(15)-----|--------------------|
|----------------------------|--------------------|
|----------------------------|--------------------|
|----------------------------|--------------------|
|----------------------------|--------------------|


                            A5    Bb5 G5   F5G5   E5
  +E   E  E E   E   E    E   E     E  E  E E   E   E    E   E
|-------------------------------|------------------------------|
|-------------------------------|------------------------------|
|-------------------------------|------------------------------|
|-------------------------------|------------------------------|
|-(7)\------5---4------------7--|--8--5--x-3---5---2----x---x--|
|------3--6---------5----x---5--|--6--3--x-1---3---0----x---x--|
|
|  Q      E E   E   E    E   E    +Q     E E   E   E    E   E
|-----------0------(0)------(0)-|-(0)------0------(0)------(0)-|
|---------3----(3)------(3)-----|--------6----(6)------(6)-----|
|-------------------------------|------------------------------|
|-------------------------------|------------------------------|
|-------------------------------|------------------------------|
|-------------------------------|------------------------------|
|
|  Q      E E   E   E    E   E    +Q     E E   E   E    E   E
|-----------0------(0)------(0)-|-(0)------0------(0)------(0)-|
|--------15---(15)-----(15)-----|-------18---(18)-----(18)-----|
|-------------------------------|------------------------------|
|-------------------------------|------------------------------|
|-------------------------------|------------------------------|
|-------------------------------|------------------------------|


  N.C.
                                                ~
  E E  E E   E   E    E   E     E  E E E E E  E E
|----------------------------|--------------------|
|----------------------------|--------------------|
|----------------------------|--------------------|
|----------------------------|--------------------|
|--------5---4---------------|-----------5-4-/8-7-|
|-3-5--6---------5-----|--3-5-6----------|
|
| Q    E E   E   E    E   E    +W
|--------0------(0)------(0)-|-(0)----------------|
|------3----(3)------(3)-----|--------------------|
|----------------------------|--------------------|
|----------------------------|--------------------|
|----------------------------|--------------------|
|----------------------------|--------------------|
|
| Q    E E   E   E    E   E    +W
|--------0------(0)------(0)-|-(0)----------------|
|-----15---(15)-----(15)-----|--------------------|
|----------------------------|--------------------|
|----------------------------|--------------------|
|----------------------------|--------------------|
|----------------------------|--------------------|


                                                      A5   Bb5
                                         PM        PM
  +E   E  E E   E   E    E   E     E  E  E E   E   E    E   E
|-------------------------------|------------------------------||
|-------------------------------|------------------------------||
|-------------------------------|------------------------------||
|-------------------------------|-/8--7------------------------||
|-(7)\----------5---4-----------|----------8---7--------7---8--||
|------3--5-6------------6---5--|--------0---------0----5---6--||
|
|  Q      E E   E   E    E   E    +Q     E E   E   E    E   E
|-----------0------(0)------(0)-|-(0)------0------(0)------(0)-||
|---------3----(3)------(3)-----|--------8----(8)------(8)-----||
|-------------------------------|------------------------------||
|-------------------------------|------------------------------||
|-------------------------------|------------------------------||
|-------------------------------|------------------------------||
|
|  Q      E E   E   E    E   E    +Q     E E   E   E    E   E
|-----------0------(0)------(0)-|-(0)------0------(0)------(0)-||
|--------15---(15)-----(15)-----|-------20---(20)-----(20)-----||
|-------------------------------|------------------------------||
|-------------------------------|------------------------------||
|-------------------------------|------------------------------||
|-------------------------------|------------------------------||


  N.C.
  Gtr I
                                                        <
     \2.5/                                  \0.5____|
  E  E      +E       +E   +E   +E  Q     E  E      +E   E  +H
|---22-----(22)b24==(22)-(22)r(22)-----|---18-----(18)--------------|
|--------------------------------------|---------------14-(14)------|
|--------------------------------------|----------------------------|
|--------------------------------------|----------------------------|
|--------------------------------------|----------------------------|
|--------------------------------------|----------------------------|
|
| Gtr II
| E  Q                E    E    E  E E   E  Q           E   E E E E
|--------------------------------------|----------------------------|
|--------------------------------------|----------------------------|
|----2---------------------2h===3----0h|=2--2---------------2h3---0h|
|--------------------------------------|----------------------------|
|-0-------------------0------------0---|----------------0-------0---|
|--------------------------------------|----------------------------|


   E  Q.        +Q    +Q       +Q      a   +Q   H
|---------------------------|--------------------------|
|-14-14b15=====(14)--(14)---|-(14)---(14)r(14)---------|
|---------------------------|--------------------------|
|---------------------------|--------------------------|
|---------------------------|--------------------------|
|---------------------------|--------------------------|
|
|  E  Q      E   E E   E  E     E  E        E E E E Q
|---------------------------|--------------------------|
|---------------------------|--------------------------|
|--2--2----------2h3------0h|===2----------------------|
|---------------------------|---------------2h3---0h2--|
|------------0---------0----|------0------------0------|
|---------------------------|--------------------------|


           \1.5/   \1.5/   \1.5/                                              /1\   /1\
  Q    S  +S      +S      +S      H              +Q     +E   +E  E E    +E    S    +S
|-----12-(12)----(12)----(12)----12b13========|=(12)---(12)r(12)------------------------|
|---------------------------------------------|-----------------------------------------|
|---------------------------------------------|-----------------------------------------|
|---------------------------------------------|--------------------0b5==(0)r-12---(12)--|
|---------------------------------------------|-----------------------------------------|
|---------------------------------------------|-----------------------------------------|
|
| E Q              E              E     E E E     E  Q        E  E E     E    E
|---------------------------------------------|-----------------------------------------|
|---------------------------------------------|-----------------------------------------|
|---2-----------------------------2h====3---0h|===2--2-----------2h3----------0h========|
|---------------------------------------------|-----------------------------------------|
|-0----------------0----------------------0---|---------------0----------0--------------|
|---------------------------------------------|-----------------------------------------|


    /1\   /1\   /1\   /1\   /1\   /1\                         \6
   +S    +S    +S    +S    +S    +S    E  +E       +E   +E   +E   W
|---------------------------------------------------------------|----------------|
|---------------------------------------------------------------|----------------|
|---------------------------------------------------------------|----------------|
|-(12)--(12)--(12)--(12)--(12)--(12)--13-(13)b14==(13)r(13)-(13)|----------------|
|---------------------------------------------------------------|----------------|
|---------------------------------------------------------------|----------------|
|
|   E           Q                      E   E        E    E    E   E E E E E E Q
|---------------------------------------------------------------|----------------|
|---------------------------------------------------------------|----------------|
|---2-----------2--------------------------2h=======3---------0h|=2--------------|
|---------------------------------------------------------------|-----2h3---0h2--|
|--------------------------------------0-----------------0------|---0-----0------|
|---------------------------------------------------------------|----------------|


  Gtrs III, IV
         ~~~          ~~~
   S  S  E.  S  S  S  Q    S  S  S  S
|-------------------------------------|
|-15p11-14----------------------------|
|-----------15p12-15-14---15p12-14p12-|
|-------------------------------------|
|-------------------------------------|
|-------------------------------------|
|
|  E     Q      E     E E  E     E
|-------------------------------------|
|-------------------------------------|
|--------2------------2h3--------0h===|
|-------------------------------------|
|--0------------0----------0----------|
|-------------------------------------|


         ~~                                           ~~        ~~~
   S  S  Q   S  S  S  T  T  S  S  S  S  S  S    S  S  Q   S  S  Q    S  S  S  S
|-----------17p13-15-17p15p13----13----------|----18-17-------------------------|
|-----------------------------17----15-17-14-|-15--------18p15-17---17p14-15p14-|
|----12--------------------------------------|----------------------------------|
|-15----14-----------------------------------|----------------------------------|
|--------------------------------------------|----------------------------------|
|--------------------------------------------|----------------------------------|
|
|  E     Q   E     E        E     E     E       E     Q   E     E E  E     E
|--------------------------------------------|----------------------------------|
|--------------------------------------------|----------------------------------|
|--2-----2---------2h=======3-----------0h===|==2-----2---------2h3--------0----|
|--------------------------------------------|----------------------------------|
|------------0--------------------0----------|------------0----------0----------|
|--------------------------------------------|----------------------------------|


         ~~                     ~~          ~~~          ~~~
   S  S  Q    S  S  S  S  S  S  Q     S  S  E.  S  S  S  Q    S  S  S  S
|----------------------------------|-------------------------18p15-17p15-|
|----14----------------------------|-15p11-14----------------------------|
|-15----14---15p12-14p12----12-----|-----------15p12-15-14---------------|
|------------------------15----14--|-------------------------------------|
|----------------------------------|-------------------------------------|
|----------------------------------|-------------------------------------|
|
|  E     E E  E     E     E     Q     E     Q      E     E E  E     E
|----------------------------------|-------------------------------------|
|----------------------------------|-------------------------------------|
|--2-------------------------------|--------2------------2h3--------0h===|
|----------2h=3-----------0h====2--|-------------------------------------|
|--------0----------0--------------|--0------------0----------0----------|
|----------------------------------|-------------------------------------|


         ~~
   S  S  Q   S  S  S  T  T  S  S  S  S  S  S
|----15-----22p18-21-22p21p18----18----------|
|-18----17--------------------22----20-22-18-|
|--------------------------------------------|
|--------------------------------------------|
|--------------------------------------------|
|--------------------------------------------|
|
|  E     Q   E     E        E     E     E
|--------------------------------------------|
|--------------------------------------------|
|--2-----2---------2h=======3-----------0----|
|--------------------------------------------|
|------------0--------------------0----------|
|--------------------------------------------|


         ~~        ~~~                      ~~                  ~~
   S  S  Q   S  S  Q    S  S  S  S    S  S  Q    S S  S S  S S  Q
|----22-21--18p15-17---15p12-13p12-|----12-------------------------|
|-20-------------------------------|-15----14----------------------|
|----------------------------------|------------12p9-10p9----9-----|
|----------------------------------|----------------------12---11--|
|----------------------------------|-------------------------------|
|----------------------------------|-------------------------------|
|
|  E     Q   E     E E  E     E       E     E E  E    E    E    Q
|----------------------------------|-------------------------------|
|----------------------------------|-------------------------------|
|--2-----2---------2h3--------0h===|==2----------------------------|
|----------------------------------|----------2h=3---------0h===2--|
|------------0----------0----------|--------0---------0------------|
|----------------------------------|-------------------------------|


         ~~~          ~~~
   S  S  E.  S  S  S  Q    S  S  S  S
|--------------------------------------|
|-15p11-14-----------------------------|
|-----------15-14-15-12---15p12-14p12--|
|--------------------------------------|
|--------------------------------------|
|--------------------------------------|
|
|  E     Q      E     E E  E     E
|--------------------------------------|
|--------------------------------------|
|--------2------------2h3--------0-----|
|--------------------------------------|
|--------------------------------------|
|--3------------3----------3-----------|


                     ~~~~~~~
                                              |--3--|
   S  S  S  S  S  S  E  +E  S  S  T  T  T  T  S  S  S
|--------------------------17-13-15h17p15p13----------|
|--------------------------------------------17p15p14-|
|----12-------12-14-12-(12)---------------------------|
|-15----14-15-----------------------------------------|
|-----------------------------------------------------|
|-----------------------------------------------------|
|
|  E     Q           E   E  E     E           E
|-----------------------------------------------------|
|-----------------------------------------------------|
|--2-----2---------------2h=3-----------------0h======|
|-----------------------------------------------------|
|-----------------------------------------------------|
|--------------------3------------3-------------------|


                     ~~                                                                  ~~~
   |------6-------|
   S  S  S  S  S  S  Q    S  S  S  S  S  S  S  S    S  S  S  S  S  S  S  S  S  S  S  S   Q
|------------------------------------------------|-------------------------------------------||
|------------------------18-15-17-18-15-14-------|-------------------------------18-15-/22---||
|-15p14p12----------14---------------------17-16-|-15-14-------------18-17-16-15-------------||
|----------15p14p12------------------------------|-------17-16-15-14-------------------------||
|------------------------------------------------|-------------------------------------------||
|------------------------------------------------|-------------------------------------------||
|
|  E        Q          E  E     E     E     E       E     E     E     E     E     E      Q
|------------------------------------------------|-------------------------------------------||
|------------------------------------------------|-------------------------------------------||
|--2--------2-------------2h====3-----------0h===|==2----------------------------------------||
|------------------------------------------------|--------------2h====3-----------0h=====2---||
|------------------------------------------------|-------------------------------------------||
|----------------------1--------------1----------|--------0-----------------0----------------||


  N.C.
  Gtrs III, IV
  E E  E E   E   E    Q         E  E E E E E  E E
|----------------------------|--------------------|
|----------------------------|--------------------|
|----------------------------|--------------------|
|----------------------------|--------------------|
|--------5---4---------------|-----------5-4-/8-7-|
|-3-5--6---------5--------|--3-5-6----------|
|
| Gtr V
| Q    E E   E   E    E   E    +W
|--------0------(0)------(0)-|-(0)----------------|
|------3----(3)------(3)-----|--------------------|
|----------------------------|------------
Добавлено: 16.03.2012
Другие материалы по этой песне:

Страница создана 29.02.2012
http://primanota.ru/john-petrucci/animate-inanimate-chords.htm
Привет, Гость.
Предлагаем пройти революционный курс по гитаре.
Подарок от PrimaNota.Ru, забирай!