PrimaNota.ru - самый крупный в мире бесплатный архив песенных текстов, аккордов, табулатур и нот


John Paul White - What A Way To Go - таба, видео

Регистрация Запомнить меня
Войти через:  Facebook Google Twitter Vk Yandex Mail.ru

John Paul White - What A Way To Go - таба, видео

Печатать
Просмотров: 146
Tuning: Standard

Video Lesson: https://www.youtube.com/watch?v=V1Tq5OMVvI4

Intro

e||-------------------------------------------|
B||------0----------0----------0----------0---|
G||----2---2-0----2---2-0----2---2-0----2---2-|
D||------------2---------------------2--------|
A||-0---------------------0-------------------|
E||-------------------------------------------| 2x


Verse

e||-------------------------------------------|
B||------0----------0----------0----------0---|
G||----2---2-0----2---2-0----2---2-0----2---2-|
D||------------2---------------------2--------|
A||-0---------------------0-------------------|
E||-------------------------------------------|

e||-----------------------|
B||------0----------0-----|
G||----2---2-0----2---2-0-|
D||------------2----------|
A||-0---------------------|
E||-----------------------|

e||------------------------------------------------------------------|
B||-----0---1------0---1------0---1------0---1------0---1------0---1-|
G||---2---2------2---2------2---2------2---2------2---2------2---2---|
D||------------------------------------------------------------------|
A||-0----------0-----------------------------------------------------|
E||-----------------------4----------4----------4----------4---------|


e||-------------------------------------------|
B||------0----------0----------0----------0---|
G||----2---2-0----2---2-0----2---2-0----2---2-|
D||------------2---------------------2--------|
A||-0---------------------0-------------------|
E||-------------------------------------------|

e||-----------------------|
B||------0----------0-----|
G||----2---2-0----2---2-0-|
D||------------2----------|
A||-0---------------------|
E||-----------------------|

e||------------------------------------------------------------------|
B||-----0---1------0---1------0---1------0---1------0---1------0---1-|
G||---2---2------2---2------2---2------2---2------2---2------2---2---|
D||------------------------------------------------------------------|
A||-0----------0-----------------------------------------------------|
E||-----------------------4----------4----------4----------4---------|
Добавлено: 20.12.2015
Другие материалы по этой песне:

Страница создана 20.12.2015
http://primanota.ru/john-paul-white/what-a-way-to-go-chords.htm
Привет, Гость.
Предлагаем пройти революционный курс по гитаре.
Подарок от PrimaNota.Ru, забирай!