PrimaNota.ru - самый крупный в мире бесплатный архив песенных текстов, аккордов, табулатур и нот


John Paul White - Black Leaf - таба, видео

Регистрация Запомнить меня
Войти через:  Facebook Google Twitter Vk Yandex Mail.ru

John Paul White - Black Leaf - таба, видео

Печатать
Просмотров: 29
Уроки эстрадного вокала в Санкт-Петербурге
[Intro]
e|---------------------------------------------------------------------------|
B|--------5---------------------5------------7-------------------------------|
G|------------6---------0~----------6----------------------------------------|
D|-----6--------6---6---------6-------6---6----6-----------------------------|
A|---4------------4---------4-----------4------------------------------------|
E|----------4---------4-----------4----------4-------------------------------|

e|---------------------------------------------------------------------------|
B|--------5---------------------5--------------------------------------------|
G|------------6---------0~----------6----------------------------------------|
D|-----6--------6---6---------6-------6---6----------------------------------|
A|---4------------4---------4-----------4------------------------------------|
E|----------4---------4-----------4----------4-------------------------------|

[Verse]
e|----------------|----------------------------------------------------------|
B|--------5-------|-----0---------0-------0-------0-------------5------------|
G|------------6---|---------2---2-----2-------2-------------6-----------0~---|
D|-----6--------6-|(x4)-------2---------2-------2-------6-----6-----6--------|
A|---4------------|-------0---------0-------2---------4-----------4----------|
E|----------4-----|-----------0---------------------------4-----------4------|

e|----------------|----------------------------------------------------------|
B|--------5-------|-----0---------0-------0-------0-------5------------------|
G|------------6---|---------2---2-----2-------2---------------6--------------|
D|-----6--------6-|(x4)-------2---------2-------2-------6-------6------------|
A|---4------------|-------0---------0-------2---------4----------------------|
E|----------4-----|-----------0-----------------------------4----------------|

e|-------------------------------0-------------------------------------------|
B|---0-------0--------------3------------------------------------------------|
G|-------3-------3--------2-----------0h1------------------------------------|
D|---------4-------4----0----------0---h2-2-2-0------------------------------|
A|-------------4--------------0----------------------------------------------|
E|-----2---------------------------------------------------------------------|

[Pre-Chorus]
e|---------------------------------------------------------------------------|
B|--------5---------------------5--------------------------------------------|
G|------------6---------0~----------6----------------------------------------|
D|-----6--------6---6---------6-------6---6----------------------------------|
A|---4------------4---------4-----------4------------------------------------|
E|----------4---------4-----------4----------4-------------------------------|

[Verse]
e|----------------|----------------------------------------------------------|
B|--------5-------|-----0---------0-------0-------0-------------5------------|
G|------------6---|---------2---2-----2-------2-------------6-----------0~---|
D|-----6--------6-|(x4)-------2---------2-------2-------6-----6-----6--------|
A|---4------------|-------0---------0-------2---------4-----------4----------|
E|----------4-----|-----------0---------------------------4-----------4------|

e|----------------|----------------------------------------------------------|
B|--------5-------|-----0---------0-------0-------0-------5------------------|
G|------------6---|---------2---2-----2-------2---------------6--------------|
D|-----6--------6-|(x4)-------2---------2-------2-------6-------6------------|
A|---4------------|-------0---------0-------2---------4----------------------|
E|----------4-----|-----------0-----------------------------4----------------|

e|-------------------------------0-------------------------------------------|
B|---0-------0--------------3------------------------------------------------|
G|-------3-------3--------2-----------0h1------------------------------------|
D|---------4-------4----0----------0---h2-2-2-0------------------------------|
A|-------------4--------------0----------------------------------------------|
E|-----2---------------------------------------------------------------------|

[Pre-Chorus]
e|---------------------------------------------------------------------------|
B|--------5---------------------5--------------------------------------------|
G|------------6---------0~----------6----------------------------------------|
D|-----6--------6---6---------6-------6---6----------------------------------|
A|---4------------4---------4-----------4------------------------------------|
E|----------4---------4-----------4----------4-------------------------------|

[Bridge]
e|-------------------|-----------------------|--------------------------0---------0-------------|
B|---1-------1-------|-------0-------0-------|-------0----------0-----------0---3----3----------|
G|-------0-------0---|-----------2-------2---|-----------1----------1-------------------1---1-0-|
D|---------2-------2-|(x2)---------1-------1-|(x2)---------2----------2-------------------------|
A|-----3-------------|---------2-------------|---------------2------------2-----2---------2-----|
E|-------------3-----|-----------------2-----|---------0----------0-----------0-----0-----------|

e|-------------------|-----------------------|--------------------------------------------------|
B|---1-------1-------|-------0-------0-------|-------0-------0---0-------0-------0---------0----|
G|-------0-------0---|-----------2-------2---|-----------1-----------1-------1---------1--------|
D|---------2-------2-|(x2)---------1-------1-|(x2)---------2-----------2-------2---------2------|
A|-----3-------------|---------2-------------|-----------------2-----------2---------2----------|
E|-------------3-----|-----------------2-----|---------0-----------0---------------0------------|

e|-------------------------------0--------------------------------------------------------------|
B|---0-------0--------------3-------------------------------0-------0-------0-------------------|
G|-------3-------3--------2-----------0h1-----------------------1-------1-------1---------------|
D|---------4-------4----0----------0---h2-2-2-2-2-2-2-2-2-2---2---2---2---2---2---2-0-----------|
A|-------------4--------------0-----------------------------------------------------------------|
E|-----2----------------------------------------------------------------------------------------|

[Instrumental]
e|---------------------------------------------------------------------------|
B|--------5---------------------5------------7-------------------------------|
G|------------6---------0~----------6----------------------------------------|
D|-----6--------6---6---------6-------6---6----6-----------------------------|
A|---4------------4---------4-----------4------------------------------------|
E|----------4---------4-----------4----------4-------------------------------|

e|---------------------------------------------------------------------------|
B|--------5---------------------5--------------------------------------------|
G|------------6---------0~----------6----------------------------------------|
D|-----6--------6---6---------6-------6---6----------------------------------|
A|---4------------4---------4-----------4------------------------------------|
E|----------4---------4-----------4----------4-------------------------------|

[Verse]
e|----------------|----------------------------------------------------------|
B|--------5-------|-----0---------0-------0-------0-------------5------------|
G|------------6---|---------2---2-----2-------2-------------6-----------0~---|
D|-----6--------6-|(x4)-------2---------2-------2-------6-----6-----6--------|
A|---4------------|-------0---------0-------2---------4-----------4----------|
E|----------4-----|-----------0---------------------------4-----------4------|

e|----------------|----------------------------------------------------------|
B|--------5-------|-----0---------0-------0-------0-------5------------------|
G|------------6---|---------2---2-----2-------2---------------6--------------|
D|-----6--------6-|(x4)-------2---------2-------2-------6-------6------------|
A|---4------------|-------0---------0-------2---------4----------------------|
E|----------4-----|-----------0-----------------------------4----------------|

e|-------------------------------0-------------------------------------------|
B|---0-------0--------------3-------------------------5----------------------|
G|-------3-------3--------2-----------0h1-----------------6------------------|
D|---------4-------4----0----------0---h2-2-2-0-----6-------6----------------|
A|-------------4--------------0-------------------4--------------------------|
E|-----2------------------------------------------------4--------------------|

e|-------------------------------0--------------------------------------------------------------|
B|---0-------0--------------3-------------------------------0-------0-------0-------------------|
G|-------3-------3--------2-----------0h1-----------------------1-------1-------1---------------|
D|---------4-------4----0----------0---h2-2-2-2-2-2-2-2-2-2---2---2---2---2---2---2-0-----------|
A|-------------4--------------0-----------------------------------------------------------------|
E|-----2----------------------------------------------------------------------------------------|

[Outro]
e|---------------------------------------------------------------------------|
B|--------5---------------------5------------7-------------------------------|
G|------------6---------0~----------6----------------------------------------|
D|-----6--------6---6---------6-------6---6----6-----------------------------|
A|---4------------4---------4-----------4------------------------------------|
E|----------4---------4-----------4----------4-------------------------------|

e|---------------------------------------------------------------------------|
B|--------5---------------------5------------7~------------------------------|
G|------------6---------0~----------6----------------------------------------|
D|-----6--------6---6---------6-------6---6----------------------------------|
A|---4------------4---------4-----------4------------------------------------|
E|----------4---------4-----------4----------4~------------------------------|


************************************

| ~  Vibrato
| h  Hammer-on

************************************
Добавлено: 18.11.2017
Другие материалы по этой песне:
  • Аккорды и текст

Страница создана 18.11.2017
http://primanota.ru/john-paul-white/black-leaf-chords.htm
Привет, Гость.
Предлагаем пройти революционный курс по гитаре.
Подарок от PrimaNota.Ru, забирай!