PrimaNota.ru - самый крупный в мире бесплатный архив песенных текстов, аккордов, табулатур и нот


John Paul Ospina - Forget Me - таба, видео

Регистрация Запомнить меня
Войти через:  Facebook Google Twitter Vk Yandex Mail.ru

John Paul Ospina - Forget Me - таба, видео

Печатать
Просмотров: 54
-------------------------------------------------------------------------------
                                              FORGET ME - John Paul Ospina
-------------------------------------------------------------------------------
Tabbed by: »-(¯'v'¯)-» NoRaLuLu »-(¯'v'¯)-» Love this song so sexy and fashion!
Email: Holla --> noralu92@hotmail.com

*** check the artist sites
*** http://soundcloud.com/johnpaulospina/sets/forget-me-ep/
*** http://twitter.com/johnpaulospina
*** http://facebook.com/johnpaulospina
*** http://www.youtube.com/watch?v=nI0PhhADEGo

Forget Me
John Paul Ospina
Key: E Minor
Tuning: Standard

e|---------------------------------------------------------------------------|
B|---------------------------------------------------------------------------|
G|-12-11-12-9-------12-11-12-19---------12-11-12-9-------12-11-12-19---------|
D|---------------------------------------------------------------------------|
A|---------------------------------------------------------------------------|
E|---------------------------------------------------------------------------|

e|-------------------------12------------------------------------------------|
B|-----------------------------------------------------------12-12-----------|
G|-10-10-10-10-------10-10----10--------10-10-10-10-------10-------10--------|
D|---------------------------------------------------------------------------|
A|---------------------------------------------------------------------------|
E|---------------------------------------------------------------------------|

    Em
I'm untrue to you

                  D                         
there's just been so much I haven't told you

C                  D
yet again there is history between us


  Em
Untrue to you

          D 
There's a burden on my shoulders

       C  
As the days go by we're older

       D
And my heart is blowing colder


  Em
Untrue to you

        D 
It's a neverending song

         C
And I've held on for so long

         B7
Now it's time to cut it off, and


   Em      D
Forget me

   C       D
Forget me

   Em      D
Forget me

   C       D
Forget me


Em                                   D
Get a brand new man, get a brand new life, get a brand new telephone

C                                  D
Kick me off your contacts list, dismiss me, grind me to the bone

Em                                   D                           C      D    Em
Down to the dust, like dreams are crushed, I was just a steppingstone

                               D
As the years go by I try but still I find I've no control

C                                  D
There's less danger in  the stranger than the devil known

Em                             D                       C     D
Betrayed our trust, gave into lust, I deserve to die alone


   Em      D
Forget me

   C       D
Forget me

   Em      D
Forget me

   C       D
Forget me
Добавлено: 05.06.2013
Другие материалы по этой песне:
  • Аккорды и текст

Страница создана 05.06.2013
http://primanota.ru/john-paul-ospina/forget-me-chords.htm
Привет, Гость.
Предлагаем пройти революционный курс по гитаре.
Подарок от PrimaNota.Ru, забирай!