PrimaNota.ru - самый крупный в мире бесплатный архив песенных текстов, аккордов, табулатур и нот


John Newton - Though Troubles Assail Us - таба, видео

Регистрация Запомнить меня
Войти через:  Facebook Google Twitter Vk Yandex Mail.ru

John Newton - Though Troubles Assail Us - таба, видео

Печатать
Просмотров: 64
-------------------------------------------------------------------------------
                    Though Troubles assail us - John Newton
-------------------------------------------------------------------------------
Tabbed by:  
E-mail:                          KEY OF G
key of G
Tuning:

e|---------------------------------------------------------------------------|
B|--------------------------------0--0---------------------------------------|
G|---0-------------2----------0-----------2---0------0-------------------2---|
D|---0------2------2--4---0-------0--0----0----------0------2------------2---|
A|----------3--3------5-------2---------------2-------------3------3---------|
E|---------------------------------------------------------------------------|
   Though troubles assail us and dangers affright though friends should all 
e|---------------------------------------------------------------------------|
B|---------------0---0-------------0----0----3--0---------0-0---3-------0----|
G|----------0------------2-0---0---0----0----2------0---0----------2---------|
D|--4---0--------0---0---0-----0----------------0---0---0-0-2---0--0----0----|
A|--5-------2--------------2-------------------------------------------------|
E|---------------------------------------------------------------------------|
   fail us and foes all unite yet one thing secures us whatever betide the 
e|---------------------------------------------------------------------------|
B|-------------------------0----0--------------------------------------------|
G|--0------2-----------0--------0---2--0-------------------------------------|
D|--2--2---2-4-----0-------0--------2----------------------------------------|
A|-----3-----5---------2-----------------------------------------------------|
E|---------------------------------------------------------------------------|
   promise assures us the lord will provide


************************************

| /   slide up
| \   slide down
| h   hammer-on
| p   pull-off
| ~   vibrato
| +   harmonic
| x   Mute note
| b   Bend
| pb  Pre-bend
| br  Bend release
| pbr Pre-bend release
| brb Bend release bend

************************************
Добавлено: 04.12.2015
Вам также может быть интересно:
Другие материалы по этой песне:
  • Аккорды и текст

Страница создана 04.12.2015
http://primanota.ru/john-newton/though-troubles-assail-us-chords.htm
Привет, Гость.
Предлагаем пройти революционный курс по гитаре.
Подарок от PrimaNota.Ru, забирай!