PrimaNota.ru - самый крупный в мире бесплатный архив песенных текстов, аккордов, табулатур и нот


John Myung - Solar Groove - бас-таба, видео

Регистрация Запомнить меня
Войти через:  Facebook Google Twitter Vk Yandex Mail.ru

John Myung - Solar Groove - бас-таба, видео

Печатать
Просмотров: 281
Alex
This is a solo piece that John Myung of Dream Theater did on one of his videos (I 
My bass teacher taught it to me a long time ago


I am aware that JM uses a 6 string bass but it can be played on a 4 string in 
standard tuning this way.

Standard Tuning

G|-------21-------16-------19-------17--------19---17---16---17---16----|
D|-----19--19---18--18---17--17---16--16----15--15---15---15---15---15--|[x2]
A|----0--------0--------0--------0---------0------0----0----0----0------|
E|----------------------------------------------------------------------|


____________________________________________________________________________
G|------21---21---21---21---21----|
D|----19--19---19---19---19---19--|
A|---0------0----0----0----0------|
E|--------------------------------|

G|------19---19---19---19---19----|
D|----18--18---18---18---18---18--|
A|---0------0----0----0----0------|
E|--------------------------------|
                                                ALL PARTS [x2]
G|------19---19---19---19---19----|
D|----17--17---17---17---17---17--|
A|---0------0----0----0----0------|
E|--------------------------------|

G|---17---19---17---16---17--16---|
D|-----15---15---15---15---15--15-|
A|-------0----0----0----0---------|
E|--------------------------------|
____________________________________________________________________________


G|-------16----17----16----17----16-|
D|-----15--15----15----15----15-----|
A|---17------17----17----17----17---|
E|----------------------------------|

G|-----16--17--19--21--19---|
D|--------------------------|
A|--------------------------|
E|---00--00--00--00--00--0--|

G|-------16----17----16----17----16-|(Same as above)
D|-----15--15----15----15----15-----|
A|---17------17----17----17----17---|
E|----------------------------------|

G|-----16--17--19--17----|(Note variation on G string)
D|-----------------------|
A|-----------------------|
E|---00--00--00--00--000-|

G|-------16----17----16----17----16-|(Same as above)
D|-----15--15----15----15----15-----|
A|---17------17----17----17----17---|
E|----------------------------------|

G|-----16--17--19--21--19---|(Same as first)
D|--------------------------|
A|--------------------------|
E|---00--00--00--00--00--0--|

G|-------16----17----16----17----16-|(Same as above)
D|-----15--15----15----15----15-----|
A|---17------17----17----17----17---|
E|----------------------------------|

G|-----16--17--19--22--21----|
D|---------------------------|
A|---------------------------|
E|---00--00--00--00--00--00--|


____________________________________________________________________________
G|------21---21---21---21---21----|
D|----19--19---19---19---19---19--|
A|---0------0----0----0----0------|
E|--------------------------------|

G|------19---19---19---19---19----|
D|----18--18---18---18---18---18--|
A|---0------0----0----0----0------|
E|--------------------------------|
                                                ALL PARTS [x2]
G|------19---19---19---19---19----|
D|----17--17---17---17---17---17--|
A|---0------0----0----0----0------|
E|--------------------------------|

G|---17---19---17---16---17--16---|
D|-----15---15---15---15---15--15-|
A|-------0----0----0----0---------|
E|--------------------------------|
____________________________________________________________________________

G|-------16----17----16----17----16-|
D|-----15--15----15----15----15-----|
A|---17------17----17----17----17---|
E|----------------------------------|

G|-----16--17--19--21--19---|
D|--------------------------|
A|--------------------------|
E|---00--00--00--00--00--0--|

G|-------16----17----16----17----16-|
D|-----15--15----15----15----15-----|
A|---17------17----17----17----17---|
E|----------------------------------|

G|-----16--17--19--22--21----|
D|---------------------------|
A|---------------------------|
E|---00--00--00--00--00--00--|

G|------5+---9+---12h14-14-14--------------|
D|------5+---9+---------------12-12-12h14--|
A|---0~------------------------------------|
E|-----------------------------------------|
                                                      Both parts [x2]
G|------5+---9+---5h7-7-7-----------|
D|------5+---9+------------5-5-5h7--|
A|---0~-----------------------------|
E|----------------------------------|


G|------------------------------5-------------------------------------------|
D|-----777----5h7----777----5h7---------------------------------------------|
A|---0------00-----0------00------------------------------------------------|
E|--------------------------------------------------------------------------|
                                          Both [x4](4th emphasize the --5---|
G|--------------------------5h75--------------------------------------------|
D|-----777----5h7----777----------------------------------------------------|
A|---0------00-----0------00------------------------------------------------|
E|--------------------------------------------------------------------------|

G|-------16----17----16----17----16-|
D|-----15--15----15----15----15-----|
A|---17------17----17----17----17---|
E|----------------------------------|


G|------------------------------5----|
D|-----777----5h7----777----5h7------|
A|---0------00-----0------00---------|
E|-----------------------------------|
                                          Both [x2]
G|--------------------------5h75--|
D|-----777----5h7----777----------|
A|---0------00-----0------00------|
E|--------------------------------|

G|-------16----17----16----17----16-|
D|-----15--15----15----15----15-----|
A|---17------17----17----17----17---|
E|----------------------------------|

G|-------21-------16-------19-------17--------19---17---16---17---16----|
D|-----19--19---18--18---17--17---16--16----15--15---15---15---15---15--|[x2]
A|----0--------0--------0--------0---------0------0----0----0----0------|
E|----------------------------------------------------------------------|

G|-----5+---9+-9+-----5+------0--|
D|-----5+---9+-9+-----5+--0-1----|
A|---0------------2-3------------|
E|-------------------------------|

The ending isn't EXACTLY how he plays it at the end because there area  few variations. 
I believe this is one of them and it fits when you play it at the end.

Enjoy!


Legend:
+      Harmonic
h      Hammer on
Добавлено: 04.03.2012
Другие материалы по этой песне:

Страница создана 04.03.2012
http://primanota.ru/john-myung/solar-groove-chords.htm
Привет, Гость.
Предлагаем пройти революционный курс по гитаре.
Подарок от PrimaNota.Ru, забирай!