PrimaNota.ru - самый крупный в мире бесплатный архив песенных текстов, аккордов, табулатур и нот


John Moreland - Heaven - аккорды и текст, видео

Регистрация Запомнить меня
Войти через:  Facebook Google Twitter Vk Yandex Mail.ru

John Moreland - Heaven - аккорды и текст, видео

Печатать
Просмотров: 139
Heaven
John Moreland
-------------------------------------------------------------------------------
                             HEAVEN - John Moreland
-------------------------------------------------------------------------------
Tabbed by: ruiDiogo

Tuning: Standard

 F                  F7
   We send our love    to the sky
Dm                    A#m6/C#
   We ask forgiveness    and try to fly
F/C                 Bdim  
   We couldn't help    but question why
 Bb        C7        F    (Fill 1)         
   Heaven only knows

 F                          F7  
   You fell down a mountain    made of pills
Dm                      A#m6/C# 
   And drowned in a sea    of hospital bills
F/C                     Bdim   
   You don't deserve it,    but it took you still
 Bb        C7        F    (Fill 2)  
   Heaven only knows

Dm                        A#m6/C#
   How am I supposed to believe in justice
F/C              Bdim
   On days like this
Bb      F/A             C           (Fill 3)
   When all I see    is emptiness

 F                    F7    
   We bite the bullet    and take the news
Dm              A#m6/C#   
   All you love    you'll someday lose
F/C               Bdim      
   We walk around    with the earthbound blues
 Bb        C7        F   
   Heaven only knows


KEYBOARD SOLO: F/A  Bb  Bdim  C7  C#dim  Dm  Bdim  Bb  C7  F  (Fill 2)


Dm                        A#m6/C#
   How am I supposed to believe in justice
F/C              Bdim
   On days like this
Bb      F/A             C           (Fill 4)
   When all I see    is emptiness

 F                  F7
   We send our love    to the sky
Dm                    A#m6/C#
   We ask forgiveness    and try to fly
F/C                 Bdim  
   We couldn't help    but question why
 Bb        C7        F    Bb  C7  F     
   Heaven only knows



CHORDS USED:
     F      F7      Dm    A#m6/C#   F/C      Bdim     Bb      C7     F/A    C#dim
e|---x------x------(5)-----(3)------(5)-------x------(6)-----(8)------x------(3)-----|
B|---10-----10------6-------6--------6--------6-------6-------8-------6-------5------|
G|---10-----8-------7-------3--------5--------7-------7-------9-------5-------3------|
D|---10-----10------7-------5--------7--------6-------8-------8-------3-------5------|
A|---8------8-------5-------4--------x--------x-------8-------10------x-------4------|
E|---x------x-------x-------x--------8--------7-------6-------8-------5-------x------|


FILLS USED:
       Fill 1                  Fill 2                           Fill 3                    
e|-----------------|---------------------------|---------------------------------------|
B|-----------------|---8p6---------------------|---------------------------------------|
G|-----------------|--------5------------------|---5/7\5~----5--4--3~------------------|
D|-----------------|---------------------------|---5/7\5~----5--5--5~------------------|
A|---------8-------|---------------------------|-------------------------------8-------|
E|---8h10-----10---|-----------5--6--7--8--9---|-------------------------8h10-----10---|

                        Fill 4
e|--------------------------------------------------|
B|--------------------------------------------------|
G|---5/7\5~----5--4--3~------------------------10---|
D|---5/7\5~----5--5--5~-----------------7--10-------|
A|--------------------------------8h10--------------|
E|--------------------------8h10--------------------|
************************************

| /   slide up
| \   slide down
| h   hammer-on
| p   pull-off
| ~   vibrato
| +   harmonic
| x   Mute note
| b   Bend
| pb  Pre-bend
| br  Bend release
| pbr Pre-bend release
| brb Bend release bend

************************************


YOUTUBE: https://www.youtube.com/watch?v=0vlLoMwcoC4

AUTHOR'S NOTE:
Please feel free to correct/add anything you see fit. 
This is just a beautiful song and I've done my best to share it with everyone. 
Enjoy guys!
Добавлено: 15.09.2015
Другие материалы по этой песне:
  • Аккорды и текст

Страница создана 15.09.2015
http://primanota.ru/john-moreland/heaven-chords.htm
Привет, Гость.
Предлагаем пройти революционный курс по гитаре.
Подарок от PrimaNota.Ru, забирай!