PrimaNota.ru - самый крупный в мире бесплатный архив песенных текстов, аккордов, табулатур и нот


John Michael Talbot - I Will Lift Up My Eyes - таба, видео

Регистрация Запомнить меня
Войти через:  Facebook Google Twitter Vk Yandex Mail.ru

John Michael Talbot - I Will Lift Up My Eyes - таба, видео

Печатать
Просмотров: 79
		   -----

                           I Will Lift Up My Eyes
written by: John Michael Talbot transcribed by d.baderman 
Drop D tuning.

E-|---1-------6-----|---5-------3-----|---1-------6-----|---5-------3-----|
B-|-----3-------8---|-----6-------5---|-----3-------8---|-----6-------5---|
G-|-------2-------7-|-------5-------5-|-------2-------7-|-------5-------5-|
D-|-----------------|-----------------|-----------------|-----------------|
A-|-----------------|-----------------|-----------------|-----------------|
D-|-0-------0-------|-0-------0-------|-0-------0-------|-0-------0-------|
                                                                      My-



E-|---1-------6-----|---5-------3-----|---1-------6-----|---5-------3-----|
B-|-----3-------8---|-----6-------5---|-----3-------8---|-----6-------5---|
G-|-------2-------7-|-------5-------5-|-------2-------7-|-------5-------5-|
D-|-----------------|-----------------|-----------------|-----------------|
A-|-----------------|-----------------|-----------------|-----------------|
D-|-0-------0-------|-0-------0-------|-0-------0-------|-0-------0-------|
    eyes        grow  weak        gazing hea--------ven   ward        Oh-



E-|---1-------1-----|---3-------3-----|---1-------6-----|---5-------3-----|
B-|-----3-------3---|-----5-------5---|-----3-------8---|-----6-------5---|
G-|-------3-------3-|-------5-------5-|-------2-------7-|-------5-------5-|
D-|-----------------|-----------------|-----------------|-----------------|
A-|-----------------|-----------------|-----------------|-----------------|
D-|-0-------0-------|-0-------0-------|-0-------0-------|-0-------0-------|
   Lord   I am    in straits      be my-- surity                      like




E-|---1-------6-----|---5-------3-----|---1-------6-----|---5-------3-----|
B-|-----3-------8---|-----6-------5---|-----3-------8---|-----6-------5---|
G-|-------2-------7-|-------5-------5-|-------2-------7-|-------5-------5-|
D-|-----------------|-----------------|-----------------|-----------------|
A-|-----------------|-----------------|-----------------|-----------------|
D-|-0-------0-------|-0-------0-------|-0-------0-------|-0-------0-------|
    eyes    of    a   mai-----den on the hands  of    her Lord          so
the



E-|---1-------1-----|---3-------3-----|---1-------3-----|---1-------1-----|
B-|-----3-------3---|-----5-------5---|-----3-------3---|-----3-------3---|
G-|-------3-------3-|-------5-------5-|-------2-------2-|-------2-------2-|
D-|-----------------|-----------------|-----------------|-----------------|
A-|-----------------|-----------------|-----------------|-----------------|
D-|-0-------0-------|-0-------0-------|-0-------0-------|-0-------0-------|
    eyes        are   stayed      up-on You                             so
our

 



                                                               CH:
E-|---1-------1-----|---3-------3-----|---2-------3-----|-2---------------|
B-|-----3-------3---|-----5-------5---|-----3-------3---|-3---------------|
G-|-------3-------3-|-------5-------5-|-------2-------2-|-2-----------0-2-|
D-|-----------------|-----------------|-----------------|-----4-4-4---2-4-|
A-|-----------------|-----------------|-----------------|-----5-5-5-------|
D-|-0-------0-------|-0-------0-------|-0-------0-------|-0---------------|
    eyes        are   stayed      up-on You                   I       up my
our                                                             will
                                                                  lift  

    G                                                      
E-|-----------------|-----------------|-----------------|-----------------|
B-|-0-------0-------|---------2-------|-----------3-----|-----------------|
G-|-0---------0-----|-----2-----2-----|-------0-2---2-0-|-------------0-2-|
D-|-----0-------0---|---2---2-----2---|-----0-----------|-4-0-4-4-4---2-4-|
A-|---2---2-------2-|-0-------------0-|---0-------------|-----5-5-5-------|
D-|-----------------|-----------------|-0---------------|-----------------|
    eyes                    unto    the mountains             I       up my
                                                                will
                                                                  lift
    G
E-|-----------------|-----------------|-----------------|-----------------|
B-|-0-------0-------|---------2-------|-----0-2-3-------|-----0-2-3-------|
G-|-0---------0-----|-----2-----2-----|---2---------4---|---2---------4---|
D-|-----0-------0---|---2---2-----2---|-4---------------|-----------------|
A-|---2---2-------2-|-0-------------0-|-----------------|-0---------------|
D-|-----------------|-----------------|-----------------|-----------------|
    eyes                  from      my  help                  I        up my
                            whence                              will
                              comes                               lift

E-|------------------|-----------------|-----------------|-----------------|
B-|-----3-0------3-0-|-----3---2-------|-----------3-----|---------3-------|
G-|---------2h4------|-----2---2-------|-------0-2---2-0-|-------2---2-----|
D-|---0--------------|---2---2-------2-|-----0-----------|-4-0-4-------4-0-|
A-|-2----------------|-0---------------|---0-------------|-----------------|
D-|------------------|-----------------|-0---------------|-----------------|
    eyes                     unto    the Lord



E-|---1-------6-----|---5-------3-----|---1-------6-----|-5-6-5---3-------|
B-|-----3-------8---|-----6-------5---|-----3-------8---|-6-------5-------|
G-|-------2-------7-|-------5-------5-|-------2-------7-|-5-------5-------|
D-|-----------------|-----------------|-----------------|-0-------0-------|
A-|-----------------|-----------------|-----------------|-----------------|
D-|-0-------0-------|-0-------0-------|-0-------0-------|-----------------|
                                                                      I


 
2nd:

E-|---1-------6-----|---5-------3-----|---1-------6-----|---5-------3-----|
B-|-----3-------8---|-----6-------5---|-----3-------8---|-----6-------5---|
G-|-------2-------7-|-------5-------5-|-------2-------7-|-------5-------5-|
D-|-----------------|-----------------|-----------------|-----------------|
A-|-----------------|-----------------|-----------------|-----------------|
D-|-0-------0-------|-0-------0-------|-0-------0-------|-0------0--------|
    cry    through                un-   til         the  dawn         like
                  the night                                              a


E-|---1-------1-----|---3-------3-----|---1-------1-----|---1-------1-----|
B-|-----3-------3---|-----5-------5---|-----3-------3---|-----3-------3---|
G-|-------3-------3-|-------5-------5-|-------2-------2-|-------2-------2-|
D-|-----------------|-----------------|-----------------|-----------------|
A-|-----------------|-----------------|-----------------|-----------------|
D-|-0-------0-------|-0-------0-------|-0-------0-------|-0-------0-------|
    swal----low   I   utter      shrill cries                         you pre



E-|---1-------6-----|---5-------3-----|---1-------6-----|---5-------3-----|
B-|-----3-------8---|-----6-------5---|-----3-------8---|-----6-------5---|
G-|-------2-------7-|-------5-------5-|-------2-------7-|-------5-------5-|
D-|-----------------|-----------------|-----------------|-----------------|
A-|-----------------|-----------------|-----------------|-----------------|
D-|-0-------0-------|-0-------0-------|-0-------0-------|-0-------0-------|
    served      my    life        from              of    death       when
                                   the dark                             You


E-|---1-------1-----|---3-------3-----|---1-------3-----|---1-------1-----|
B-|-----3-------3---|-----5-------5---|-----3-------3---|-----3-------3---|
G-|-------3-------3-|-------5-------5-|-------2-------2-|-------2-------2-|
D-|-----------------|-----------------|-----------------|-----------------|
A-|-----------------|-----------------|-----------------|-----------------|
D-|-0-------0-------|-0-------0-------|-0-------0-------|-0-------0-------|
    cast  behind  Your back   all   my  sins                          when
                                                                        You

                                                            CH:
E-|---1-------1-----|---3-------3-----|---2-------3-----|-2---------------|
B-|-----3-------3---|-----5-------5---|-----3-------3---|-3---------------|
G-|-------3-------3-|-------5-------5-|-------2-------2-|-2-----------0-2-|
D-|-----------------|-----------------|-----------------|-----4-4-4---2-4-|
A-|-----------------|-----------------|-----------------|-----5-5-5-------|
D-|-0-------0-------|-0-------0-------|-0-------0-------|-0---------------|
    cast  behind  Your back   all    my sins                  I       up my
                                                                will
                                                                  lift

 

CH:
    G                                                         CH:       
E-|-----------------|-----------------|-----------------|-----------------|
B-|-0-------0-------|---------2-------|-----------3-----|-----------------|
G-|-0---------0-----|-----2-----2-----|-------0-2---2-0-|-------------0-2-|
D-|-----0-------0---|---2---2-----2---|-----0-----------|-4-0-4-4-4---2-4-|
A-|---2---2-------2-|-0-------------0-|---0-------------|-----5-5-5-------|
D-|-----------------|-----------------|-0---------------|-----------------|
    eyes                    unto    the mountains             I       up my
                                                                will
                                                                  lift


    G
E-|-----------------|-----------------|-----------------|-----------------|
B-|-0-------0-------|---------2-------|-----0-2-3-------|-----0-2-3-------|
G-|-0---------0-----|-----2-----2-----|---2---------4---|---2---------4---|
D-|-----0-------0---|---2---2-----2---|-4---------------|-----------------|
A-|---2---2-------2-|-0-------------0-|-----------------|-0---------------|
D-|-----------------|-----------------|-----------------|-----------------|
    eyes                  from      my  help                  I will  up my
                            whence                              lift
                             comes



E-|------------------|----------------|-----------------|-----------------|
B-|-----3-0------3-0-|-----3---2------|-----------3-----|---------3-------|
G-|---------2h4------|-----2---2------|-------0-2---2-0-|-------2---2-----|
D-|---0--------------|---2---2------2-|-----0-----------|-4-0-4-------4-0-|
A-|-2----------------|-0--------------|---0-------------|-----------------|
D-|------------------|----------------|-0---------------|-----------------|
    eyes                     unto   the Lord                  I will  up my
                                                                lift


E-|------------------|----------------|-----------------|-----------------|
B-|-----3-0------3-0-|-----3---2------|-----------3-----|-----------------|
G-|---------2h4------|-----2---2------|-------0-2---2-0-|-----------------|
D-|---0--------------|---2---2------2-|-----0-----------|-4---------------|
A-|-2----------------|-0--------------|---0-------------|-----------------|
D-|------------------|----------------|-0---------------|-0---------------|
    eyes                     unto   the Lord


[dan@hwcae.az.honeywell.com (Dan Baderman)]
---------------------------------------------------
..all our superstars are suicidal casualties
and our heros die in motel rooms and motorcades..
	R. Stonehill "Through the Glass Darkly"
---------------------------------------------------

     
Добавлено: 05.06.2013
Другие материалы по этой песне:
  • Аккорды и текст

Страница создана 05.06.2013
http://primanota.ru/john-michael-talbot/i-will-lift-up-my-eyes-chords.htm
Привет, Гость.
Предлагаем пройти революционный курс по гитаре.
Подарок от PrimaNota.Ru, забирай!