PrimaNota.ru - самый крупный в мире бесплатный архив песенных текстов, аккордов, табулатур и нот


John Michael Talbot - Here I Am Lord - таба, видео

Регистрация Запомнить меня
Войти через:  Facebook Google Twitter Vk Yandex Mail.ru

John Michael Talbot - Here I Am Lord - таба, видео

Печатать
Просмотров: 117
-------------------------------------------------------------------------------
                           Here I am Lord - John Michael Talbot
-------------------------------------------------------------------------------

Tuning:Standard

e|--------------------------------------------------------------0------------|
B|--3---2---3---0-------0----0-----3----2----3----0--------3-----------------|
G|------------------2----------------------------------2---------------------|
D|---------------------------------------------------------------------------|
A|---------------------------------------------------------------------------|
E|---------------------------------------------------------------------------|

e|--2---0----------------------------------------------0---------------0-----|
B|---------3---2---3---2---0---0---2---3-----------3---1-------1---3---0---1-|
G|-----------------------------------------2---0-------0---0-----------0-----|
D|---------------------------------------------------------------------------|
A|---------------------------------------------------------------------------|
E|---------------------------------------------------------------------------|

e|----------0---0---2---0----------------------0---------------0-------------|
B|--1---3---0---------------3---1---3------3---1-------1---3---0---1---1---3-|
G|----------0--------------------------0-------0---0-----------0-------------|
D|---------------------------------------------------------------------------|
A|---------------------------------------------------------------------------|
E|---------------------------------------------------------------------------|

e|--0---2---0-----------0----------------------------------------------------|
B|--------------3---2---3----------------------------------------------------|
G|----------------------0----------------------------------------------------|
D|---------------------------------------------------------------------------|
A|---------------------------------------------------------------------------|
E|---------------------------------------------------------------------------|
      Repeat Song



Добавлено: 23.06.2015
Вам также может быть интересно:
Другие материалы по этой песне:
  • Аккорды и текст

Страница создана 23.06.2015
http://primanota.ru/john-michael-talbot/here-i-am-lord-chords.htm
Привет, Гость.
Предлагаем пройти революционный курс по гитаре.
Подарок от PrimaNota.Ru, забирай!