PrimaNota.ru - самый крупный в мире бесплатный архив песенных текстов, аккордов, табулатур и нот


John Michael Talbot - Confession - таба, видео

Регистрация Запомнить меня
Войти через:  Facebook Google Twitter Vk Yandex Mail.ru

John Michael Talbot - Confession - таба, видео

Печатать
Просмотров: 104
Уроки эстрадного вокала в Санкт-Петербурге
Confession
(1 John 1)
by: John Michael Talbot on Hiding Place
xcribed by d.baderman
 
Riff: (no timing implied here.  Listen to the song...)
 
    Gm       Dm7 F  Gm       C
E-|-3--3-5-6-5---1--3--3-5-6---------------------------------
B-|-3--3-----6---1--3--3-----5-6p5---------------------------
G-|-3--3-----5---2--3--3-----5----7p5-----------0-2h3p2p0----
D-|-5--5-----7---3--5--5-----5--------5-------0-----------0--
A-|-5--5-----5---3--5--5-----7----------7\3------------------
E-|-3--3-----5---1--3--3--------------------3---------------3
 
    C                    Gm
E-|-------------------------3-3------3-3-
B-|-------3-5-3h5p3------3---------3-----
G-|-----5-----------5--------------------
D-|---5---------------5------------------
A-|-3------------------------------------
E-|----------------------3-------*-3-----
 
NOTE: For ease of chording, I use normal tuning.  However JMT uses drop D
Thus if you
      want to use the drop D - move everything on the low E up two frets, and
the *
      becomes the open string note (D).  Also the last 2 bars of the riff
(from last Gm)
      are used throughout the piece to tie parts togeather**
 
Riff:
 
  Gm      Dm7      F   Gm
1.I see a struggle now within
  C           Gm
  Alive in my soul
         C        Gm
  As I'm dying to sin**
  Gm       Dm7 F         Gm
  I do the things that I hate
       C           Gm
  G I hate what I do
  C          Gm
  Who will deliver me?
      Bb           F F7        1Dm7 F  Gm     -Note: this line is not
  But thanks be to God Through Je--sus Christ        exact I know - please
            Bb          F     Dm7    Gm              offer alternates...
  For there is no Condemnation    at all
 
Riff:
 
  Gm          Dm7     F       Gm
2.This is the message we have heard
          C             Gm
  We have seen with our eyes
          C                Gm
  We have touched with our hands**
  Gm  Dm7     F      Gm
  The word of life appeared
      C           Gm
  The word became flesh
      C           Gm
  The word dwelt among us**
      Bb      F F7  1Dm7  F    Gm
  The word of life, The God of light
         Bb              F       Dm7    Gm
  And in him there is no darkness    at all
 
  Gm                  Dm7        F    Gm
3.If we claim to have fellowship with Him
         C           Gm
  Yet we walk in the dark
     C         Gm
  We live in a lie**
        Gm       Dm7 F       Gm
  If we claim to be  without sin
       C        Gm
  We deceive ourselves
      C               Gm
  The word is not within us
        Bb          F   F7    1Dm7 F      Gm
  If we confess our sins   and cry out to God
          Bb              F      Dm7   Gm
  He will forgive and purify our human hearts
      Bb        F F7   1Dm7 F  Gm
  For those who are in Je--sus Christ
         Bb               F      Dm7 Gm
  He has given us, of the spirit of  God
 
Riff:
 
fin:  Gm      F        Dm7 Gm
      I See a struggle now within
       C          Gm
      Alive in my soul
             C        Gm
      As I'm dying to sin**
 
The Chords:
    Bb  C  Dm7 1Dm7  F  F7  Gm
E-|--6--0---5----1---1---1---3-
B-|--6--1---6----1---1---1---3-
G-|--7--0---5----2---2---2---3-
D-|--8--2---7--------3---1---5-
A-|--8--3---5--------3-------5-
E-|--6--3---5--------1-------3-
 
 
     
Добавлено: 11.09.2013
Другие материалы по этой песне:
  • Аккорды и текст

Страница создана 11.09.2013
http://primanota.ru/john-michael-talbot/confession-chords.htm
Привет, Гость.
Предлагаем пройти революционный курс по гитаре.
Подарок от PrimaNota.Ru, забирай!