PrimaNota.ru - самый крупный в мире бесплатный архив песенных текстов, аккордов, табулатур и нот


John Mellencamp - Wild Night - текст песни, бас-таба, видео

Регистрация Запомнить меня
Войти через:  Facebook Google Twitter Vk Yandex Mail.ru

John Mellencamp - Wild Night - текст песни, бас-таба, видео

Печатать
Просмотров: 26
Уроки эстрадного вокала в Санкт-Петербурге
Авторы музыки: Van Morrison
Авторы текста: Van Morrison
-------------------------------------------------------------------------------
                             WILD NIGHTS - JOHN C. MELLENCAMP
-------------------------------------------------------------------------------
Tabbed by: Emiel94
E-mail: 

Tuning: Standard

INTRO

G|--------------------------------------------------------|--
D|-----5-------------5-------------5-------------5--------|--
A|-------7-5---5-------7-5-----------7-5---5-------7-5---5|--
E|-0---------7---0---------7-5-3---------7---3---------7--|-0

VERSE


G|-------------------------------12-----------------------12-----------------|
D|-----5-------------5--------------11h12p11h12p11h12-------11h12p11h12p11h12|  x2
A|-------7-5---5-------7-5---5-----------------------------------------------|
E|-0---------7---0---------7---3----------------------0-3--------------------|

PRE-CHORUS

G|------6+-------8+---------------------|
D|--------------------------5-----------|
A|-2/3~-----4/5~--------------7-5---5---|
E|-------------------2-3~---------7---3-|

CHORUS

G|------------------------------|       |----------------------|
D|-------5h7---5----------------|  (x3) |-----------5-5-5-5h7-5|
A|-5/7---------------------7/10-|       |-5--------------------|
E|---------------7/8---7-8------|       |-----2---5------------|


G|--------------------------------------------------------------------------------------------------|
D|-------5h7---5--------------------------5-5-5-5h7-5-------5h7---5---------------------5-----------|
A|-5/7---------------------7/10-5---------------------5/7-------------5---5-7-5-----------7-5-------|
E|---------------7/8---7-8----------2---5---------------------------------------7-5-3---------7-5-3-|

VERSE
PRE-CHORUS
CHORUS

SOLO

G|------------------------------------------------------------|  
D|-----5---------------5-------------5-------------5----------|  x6
A|-------7-5-----5-------7-5-----------7-5-----------7-5-----5|
E|-0---------7b8---0---------7-5-3---------7-5-3---------7b8--|

G|---------------------------------------------------------------------|  
D|-----5---------------5-------------5-------------5-------------------|
A|-------7-5-----5-------7-5-----7------7-5-----------7-5--------------|
E|-0---------7b8---0---------7-5------------7-5-3---------7-5-3-3-3/5/7|

CHORUS

G|------------------------------|       |---------------------------  ----    ----     --------|
D|-------5h7---5----------------|  (x3) |-----------5-5-5-5h7-5-----  ----    ----     --------|
A|-5/7---------------------7/10-|       |-5-------------------------  ----    ----     --------|
E|---------------7/8---7-8------|       |-----2---5-------------0---  \0-- x6 ----  x2 -5h7-5-3|

(Read: Slide down to E six times, wait two times and then get back 
into following chorus riff with the last lick)


G|--------------------------------------------------------------------------------------------------|
D|-------5h7---5--------------------------5-5-5-5h7-5-------5h7---5---------------------5-----------|
A|-5/7---------------------7/10-5---------------------5/7-------------5---5-7-5-----------7-5-------|
E|---------------7/8---7-8----------2---5---------------------------------------7-5-3---------7-5-3-|


| b  bend note to
| /  slide up
| \  slide down
| h  hammer-on
| p  pull-off
| +  harmonic
===============================================================================
Добавлено: 06.12.2017
Другие материалы по этой песне:
  • Аккорды и текст

Страница создана 13.04.2012
http://primanota.ru/john-mellencamp/wild-night-chords.htm
Привет, Гость.
Предлагаем пройти революционный курс по гитаре.
Подарок от PrimaNota.Ru, забирай!