PrimaNota.ru - самый крупный в мире бесплатный архив песенных текстов, аккордов, табулатур и нот


John Mellencamp - Warmer Place To Sleep - аккорды и текст, видео

Регистрация Запомнить меня
Войти через:  Facebook Google Twitter Vk Yandex Mail.ru

John Mellencamp - Warmer Place To Sleep - аккорды и текст, видео

Печатать
Просмотров: 63
Новый альбом группы 'Черный Кузнец' по культовому сериалу 'Сверхъестественное'!
Warmer Place To Sleep
John Mellencamp
John Mellencamp
Song:"Warmer Place To Sleep"
Album:"Uh Huh" (1983)


[Intro]

         D   G   D   G    G                       pm   
e|---------------------------------------------------------------------------|
B|-------7---8---7---8----8---------7---8---7--8--8-8--x-x-x---8-------------|
G|-------7---7---7---7----7---------7---7---7--7--7-7--x-x-x---7-------------| x5
D|-------7---9---7---9----9---------7---9---7--9--9-9--x-x-x---9-------------|
A|---------------------------------------------------------------------------|
E|-8h10-----------------------8h10-------------------------------------------|


[Verse]

         D   G   D   G    D                       pm   
e|---------------------------------------------------------------------------|
B|-------7---8---7---8----8---------7---8---7--8--8-8--x-x-x---8-------------|
G|-------7---7---7---7----7---------7---7---7--7--7-7--x-x-x---7-------------| x2
D|-------7---9---7---9----9---------7---9---7--9--9-9--x-x-x---9-------------|
A|---------------------------------------------------------------------------|
E|-8h10-----------------------8h10-------------------------------------------|

Well, I've been up to the mountain
Seen the ashes down below
I had breakfast with the wise man
He told me what he thought I should know


C                           G
And I've been to bed with Jezebel
    C                     Gsus G/D Gsus G/D
I found the well was deep


[Chorus]

         D   G   D   G    G                       pm   
e|---------------------------------------------------------------------------|
B|-------7---8---7---8----8---------7---8---7--8--8-8--x-x-x---8-------------|
G|-------7---7---7---7----7---------7---7---7--7--7-7--x-x-x---7-------------|
D|-------7---9---7---9----9---------7---9---7--9--9-9--x-x-x---9-------------|
A|---------------------------------------------------------------------------|
E|-8h10-----------------------8h10-------------------------------------------|

And I'd trade in my ambitions
For a warmer place to sleep
There, I'd trade in my ambitions
For a warmer place to sleep
Kick it in one time, yeah

         D   G   D   G    G  
                     pm   
e|---------------------------------------------------------------------------|
B|-------7---8---7---8----8---------7---8---7--8--8-8--x-x-x---8-------------|
G|-------7---7---7---7----7---------7---7---7--7--7-7--x-x-x---7-------------| x2
D|-------7---9---7---9----9---------7---9---7--9--9-9--x-x-x---9-------------|
A|---------------------------------------------------------------------------|
E|-8h10-----------------------8h10-------------------------------------------|


[Verse]

         D   G   D   G    G                       pm   
e|---------------------------------------------------------------------------|
B|-------7---8---7---8----8---------7---8---7--8--8-8--x-x-x---8-------------|
G|-------7---7---7---7----7---------7---7---7--7--7-7--x-x-x---7-------------| x4
D|-------7---9---7---9----9---------7---9---7--9--9-9--x-x-x---9-------------|
A|---------------------------------------------------------------------------|
E|-8h10-----------------------8h10-------------------------------------------|

Well, I've seen the heart of darkness
Read the writing on the wall
And the voice out in the desert
Was the voice I heard out in the hall

C                      G
And once he called me Abel
C                          Gsus G/D
And once he called me Cain

         D   G   D   G    G                       pm   
e|---------------------------------------------------------------------------|
B|-------7---8---7---8----8---------7---8---7--8--8-8--x-x-x---8-------------|
G|-------7---7---7---7----7---------7---7---7--7--7-7--x-x-x---7-------------| x2
D|-------7---9---7---9----9---------7---9---7--9--9-9--x-x-x---9-------------|
A|---------------------------------------------------------------------------|
E|-8h10-----------------------8h10-------------------------------------------|

And for forty days and forty nights
I slept out in the rain


[Bridge]

A
Girl, can you share your warm bed tonight
             G               Gsus G/D  Gsus G/D
I need to find a safe retreat
A
Someplace where they can't see my eyes
          E
I need to find a warmer place to sleep


[Chorus]

         D   G   D   G    G                       pm   
e|---------------------------------------------------------------------------|
B|-------7---8---7---8----8---------7---8---7--8--8-8--x-x-x---8-------------|
G|-------7---7---7---7----7---------7---7---7--7--7-7--x-x-x---7-------------|
D|-------7---9---7---9----9---------7---9---7--9--9-9--x-x-x---9-------------|
A|---------------------------------------------------------------------------|
E|-8h10-----------------------8h10-------------------------------------------|

I need to find a warmer place to sleep
I need to find a warmer place to sleep


[Verse]

         D   G   D   G    G                       pm   
e|---------------------------------------------------------------------------|
B|-------7---8---7---8----8---------7---8---7--8--8-8--x-x-x---8-------------|
G|-------7---7---7---7----7---------7---7---7--7--7-7--x-x-x---7-------------| x4
D|-------7---9---7---9----9---------7---9---7--9--9-9--x-x-x---9-------------|
A|---------------------------------------------------------------------------|
E|-8h10-----------------------8h10-------------------------------------------|

Well, I've rested in the devil's arms
I've chased the hounds of hell
I played truth or dare with the angels
And as far as I can tell

         C                      G
That a heart of gold ain't no better
          C                        Gsus G/D Gsus G/D
Than a heart torn from the streets


[Chorus]

         D   G   D   G    G                       pm   
e|---------------------------------------------------------------------------|
B|-------7---8---7---8----8---------7---8---7--8--8-8--x-x-x---8-------------|
G|-------7---7---7---7----7---------7---7---7--7--7-7--x-x-x---7-------------|
D|-------7---9---7---9----9---------7---9---7--9--9-9--x-x-x---9-------------|
A|---------------------------------------------------------------------------|
E|-8h10-----------------------8h10-------------------------------------------|

And I'd trade in my heart of stone
For a warmer place to sleep
         D   G   D   G    G                       pm   
e|---------------------------------------------------------------------------|
B|-------7---8---7---8----8---------7---8---7--8--8-8--x-x-x---8-------------|
G|-------7---7---7---7----7---------7---7---7--7--7-7--x-x-x---7-------------|
D|-------7---9---7---9----9---------7---9---7--9--9-9--x-x-x---9-------------|
A|---------------------------------------------------------------------------|
E|-8h10-----------------------8h10-------------------------------------------|

There I'd trade in my heart of stone
For a warmer place to sleep

A
Girl, can you share your warm bed tonight
             G               Gsus G/D  Gsus G/D
I need to find a safe retreat
A
Someplace where they can't see my eyes
          E
I need to find a warmer place to sleep

         D   G   D   G    G                       pm   
e|---------------------------------------------------------------------------|
B|-------7---8---7---8----8---------7---8---7--8--8-8--x-x-x---8-------------|
G|-------7---7---7---7----7---------7---7---7--7--7-7--x-x-x---7-------------| x6
D|-------7---9---7---9----9---------7---9---7--9--9-9--x-x-x---9-------------|
A|---------------------------------------------------------------------------|
E|-8h10-----------------------8h10-------------------------------------------|

I need to find a warmer place to sleep
I need to find a warmer place to sleep
I need to find a warmer place to sleep
I need to find a warmer place to sleep
I need to find a warmer place to sleep
I need to find a warmer place to sleep


Gsus (xxx788)
G/D (xxx787)

Questions, comments, insults...
Добавлено: 06.12.2017
Другие материалы по этой песне:

Страница создана 22.06.2012
http://primanota.ru/john-mellencamp/warmer-place-to-sleep-chords.htm
Привет, Гость.
Предлагаем пройти революционный курс по гитаре.
Подарок от PrimaNota.Ru, забирай!