PrimaNota.ru - самый крупный в мире бесплатный архив песенных текстов, аккордов, табулатур и нот


John Mellencamp - Thundering Hearts - аккорды и текст, видео

Регистрация Запомнить меня
Войти через:  Facebook Google Twitter Vk Yandex Mail.ru

John Mellencamp - Thundering Hearts - аккорды и текст, видео

Печатать
Просмотров: 98
Thundering Hearts
John Mellencamp
-------------------------------------------------------------------------------
                             Thundering Hearts-John Mellencamp
-------------------------------------------------------------------------------
Tabbed by:Nick V.
E-mail:BlindTerry333@gmail.com

Tuning:EADGBE

Capo II

Intro
            A    G      F#m   D
e|---------x-x-----------2----2-----------------------------------------------------|
B|---------x-x-----------2----3-----------------------------------------------------|
G|---------2-2-----------2----2-----------------------------------------------------|
D|---------2-2-----------4----0-----------------------------------------------------|
A|---------0-0-----------4----0-----------------------------------------------------|
E|-0-3-0---x-x---3--0----2----x-----------------------------------------------------|


Verses
   A      G     F#m   D
e|-x-x-----------2----2-----------------------------------------------------|
B|-x-x-----------2----3-----------------------------------------------------|
G|-2-2-----------2----2-----------------------------------------------------|
D|-2-2-----------4----0-----------------------------------------------------|
A|-0-0-----------4----0-----------------------------------------------------|
E|-x-x---3--0----2----x-----------------------------------------------------|

A             G           F#m D
In these long hot summer days 
A             G              F#m   D
Need a way to cool ourselves down
A          G               F#m   D                 
Pop of the top of that Chevrolet
A                 G             F#m        D
Drive through the car wash laugh and fall around

A G F#m D

A                G
Smokin the old ducados 
            F#m           D
The old man got down in Spain 
A               G                   F#m   D
Eating eggs and french fries on the side
A                G              F#m         D
Ride that Harley Davidson in the hot summer heat
A        G                F#m      D
Lord knows that i just love to ride
E                                 Dsus D
Go by and pick up that Kentucky girl
      E                      F#m
She knew me when i got my start
E                          D
Oh yeah those were different days 


In the valley of the 

           A E F#m
Thundering hearts
D          A E F#m
Thundering hearts
D          A E F#m
Thundering hearts
D          A E F#m
Thundering hearts

A G F#m D 

A               G                  F#m   D
Get your greasy hair girl right on my face
A              G       F#m          D
This old red neck is on fire burnin up
A         G                   F#m       D
Give us a kiss baby make it on the same place'
A           G               F#m       D
Humidity is about to drive me all crazy wild
E                           Dsus    D
Pretty soon the sun will be goin down
      E                         F#m
And this little town will be cool and dark
E                                  Dsus   D
Forget about Heaven let me stay here forever


In the valley of the...

           A E F#m
Thundering hearts
D          A E F#m
Thundering hearts
D          A E F#m
Thundering hearts
D          A E F#m
Thundering hearts

A G F#m D

Questions, comments, insults...BlindTerry333
Добавлено: 26.08.2015
Другие материалы по этой песне:
  • Аккорды и текст

Страница создана 30.08.2013
http://primanota.ru/john-mellencamp/thundering-hearts-chords.htm
Привет, Гость.
Предлагаем пройти революционный курс по гитаре.
Подарок от PrimaNota.Ru, забирай!