PrimaNota.ru - самый крупный в мире бесплатный архив песенных текстов, аккордов, табулатур и нот


John Mellencamp - Someday - аккорды и текст, видео

Регистрация Запомнить меня
Войти через:  Facebook Google Twitter Vk Yandex Mail.ru

John Mellencamp - Someday - аккорды и текст, видео

Печатать
Просмотров: 145
Someday
John Mellencamp
-------------------------------------------------------------------------------
                             Someday-John Mellencamp
-------------------------------------------------------------------------------
Tabbed by:Nick V.
E-mail:BlindTerry333@aol.com

From "Freedom's Road"

Tuning:EADGBE

Eb7M  :xx1333
Am:x02210
Dm:x00231

 Cm Bb Cm  Bb  Cm            Gm7 Gm7no5 Gm7 Gm7no5  Gm
e|-3-----3-----3--3--------------3-------3-------3--3-----------------------------|
B|-4--3--4--3--4--4--------------3-------3-------3--3-----------------------------|
G|-5--3--5--3--5--5--------------3---3---3---3---3--3-----------------------------|
D|-5--3--5--3--5--5--------------5---3---5---3---5--5-----------------------------|
A|-3-----3-----3--3--------------3---x---3---x---3--3-----------------------------|
E|-------------------------------3---3---3---3---3--3-----------------------------|

   Gm7       Dm     Cm              Gm7
Someday, someday but I don't know when
  Gm7        Dm     Cm              Gm7
Someday, someday but I don't know when

Cm   Bb   Cm   Bb     Cm Cm
Brother brother oh brother
Gm7 Gm7no5    Gm Gm7no5   Gm7 Gm7
Why are you walking down this road here
 Cm   Bb  Cm   Bb        Cm Cm
This is the road of madness and trouble
         Gm7                    D
And it's paved with intolerance, ignorance and fear

   Gm7       Dm     Cm              Gm7
Someday, someday but I don't know when
  Gm7        Dm     Cm              Gm7
Someday, someday but I don't know when


Cm   Bb  Cm   Bb    Cm Cm
Drinking our liquor from a paper cup
Gm7 Gm7no5  Gm Gm7no5   Gm7 Gm7
Mean to each other, enough is enough
Cm   Bb    Cm   Bb       Cm Cm
I look at your face, you look just like me
       Gm7              D
Hey brother, I'm not your enemy

   Gm7       Dm     Cm              Gm7
Someday, someday but I don't know when
  Gm7        Dm     Cm              Gm7
Someday, someday but I don't know when

Am
How many times can a spirit be broken
D
For this is the kingdom of heaven we're given
Am
Good fortune will come to those who create peace
D
For those are the ones that will walk in heaven   

   Gm7       Dm     Cm              Gm7
Someday, someday but I don't know when
  Gm7        Dm     Cm              Gm7
Someday, someday but I don't know when

   Gm7       Dm     Cm              Gm7
Someday, someday but I don't know when
  Gm7        Dm     Cm              Gm7
Someday, someday but I don't know when


Eb7M    Gm7  Cm  D 


Questions, comments, insults....BlindTerry333
Добавлено: 26.08.2015
Другие материалы по этой песне:
  • Аккорды и текст

Страница создана 30.11.2013
http://primanota.ru/john-mellencamp/someday-chords.htm
Привет, Гость.
Предлагаем пройти революционный курс по гитаре.
Подарок от PrimaNota.Ru, забирай!