PrimaNota.ru - самый крупный в мире бесплатный архив песенных текстов, аккордов, табулатур и нот


John Mclaughlin - Guardian Angel - таба, видео

Регистрация Запомнить меня
Войти через:  Facebook Google Twitter Vk Yandex Mail.ru

John Mclaughlin - Guardian Angel - таба, видео

Печатать
Просмотров: 205
Guardian Angel by John McLaughlin

4/4, Fast

"+" means : let ring

e |-----------3---------|---2-------0-------0-|-------------------|
  |-----1---1---------0-|---------------------|---------3---------|
  |-------4---------2---|-2-------2-------0---|-----0-----------0-|
  |---2++++++++---0+++++|++++-----------------|---4---4-------4---|
  |---------------------|-------4++++---3++++-|-2++++++++---3+++++|
E |---------------------|---------------------|-------------------|

e |---0-----------------|------------------|----------------|
  |-----------3-------1-|-----0------0-----|-----0----------|
  |---------------------|------------------|-3-----3--------|
  |-4-------4-------2---|---2-------2----2-|---2------------|
  |+5-----2++++---0-----|------------------|----------------|
E |---------------------|-4-------2----2---|-2++++++--2-3-4+|

e |------------------|------------0---|-----0-----2------|
  |---0-----2--------|---2------------|----------------1-|
  |------------------|--------0-------|---2-----2--------|
  |-2-----2----------|-4----4---4-----|-------0++----2+++|
  |-----0++++--0-1-2+|++--3++++-----3-|-4----------------|
E |++----------------|----------------|------------------|

e |-----3---------5-|-----0----------|------------------|------|
  |---1-------0-----|--------------2-|------------------|-0++++|
  |-4-------5---5---|---0------0-----|---------2++++++++|------|
  |++-----3++++++---|--------4---4---|-----0----------0-|------|
  |-----------------|-3----2++-------|---4---4-4--------|------|
E |-----------------|----------------|-2----------2-3---|------|

Listen to the CD to get the right timing .

Maybe somebody could transcribe the rest ?  ;-)

 _______________________________________________________________
| Jens Dittrich                                                 |
| Department of Mathematics/Computer Science (FB 12)            |
| University of Marburg (Lahn) - Germany                        |
| EMail: Dittrich@Informatik.Uni-Marburg.De                     |
| WWW :  http://www.mathematik.uni-marburg.de/~dittrich         |
|_______________________________________________________________|
Добавлено: 13.05.2012
Другие материалы по этой песне:

Страница создана 15.03.2012
http://primanota.ru/john-mclaughlin/guardian-angel-chords.htm
Привет, Гость.
Предлагаем пройти революционный курс по гитаре.
Подарок от PrimaNota.Ru, забирай!