PrimaNota.ru - самый крупный в мире бесплатный архив песенных текстов, аккордов, табулатур и нот


John Mayer - Whiskey Whiskey Whiskey - аккорды и текст, таба, видео

Регистрация Запомнить меня
Войти через:  Facebook Google Twitter Vk Yandex Mail.ru

John Mayer - Whiskey Whiskey Whiskey - аккорды и текст, таба, видео

Печатать
Просмотров: 258
Авторы музыки: John Mayer
Авторы текста: John Mayer
Whiskey Whiskey Whiskey
John Mayer
This is a cool song of the new, not released, album by John Mayer; Born and Raised!

I really dig the feeling of it; I got the chords of a live performance, but it sound 
pretty right with the snippet of the studio version off iTunes!

Tabbed by Bob Barlag
Any Questions? Email me at bobbarlag@hotmail.com


The chords used are:

   Dsus4(add9)  Am7add9    Em       G(no1)   Em7    G(no2)   Cadd9
e|-(0)----------0----------0--------x--------0-------3-------3-----------|
B|--7-----------0----------0--------3--------3-------3-------3-----------|
G|--0-----------5----------0--------4--------0-------0-------0-----------|
D|--7-----------5----------2--------5--------2-------0-------2-----------|
A|--5-----------x----------2--------x--------2------(2)------3-----------|
E|--------------5----------0--------3--------0-------3-------------------|


    D/F#   Dsus2?F#   A    Asus4
e|--2------0----------0-----0--------------------------------------------|
B|--3------3----------2-----3--------------------------------------------|
G|--2------2----------2-----2--------------------------------------------|
D|--0------0----------2-----2--------------------------------------------|
A|--x------x----------0-----0--------------------------------------------|
E|--2------2-------------------------------------------------------------|


Intro: Dsus4(add9) Am7add9  Em


Verse:
       G(no1)
We pick up in New York City
                                    Dsus4/F#  D/F#   Dsus4/F#  D/F#
I try to find the man I never got to be
           G(no1)
But when I push down on the pavement
                                          Dsus4/F#  D/F#   Dsus4/F#  D/F#
I find the whole thing so much harder than it seems


Pre-chorus:
    G(no1)
The only deal I ever signed
   Em7
No devil drew a dotted line
    G(no2)
The stage was set, the words were mine
           Cadd9
I'm not complaining


Chorus:
Dsus4(add9)
Whiskey, whiskey, whiskey
Am7add9
Water, water, water
Em
Sleep
Dsus4(add9)
Whiskey, whiskey, whiskey
Am7add9
Wake up, shake it off
Em
And repeat


Post-Chorus:
            Em7
It's just a phase
            Asus4  A
It's not forever
            Em7
It's just a phase
      Dsus2/F#           D/F#
And I still might have a way to go

Intro:

Verse:

Pre-Chorus:

Chorus:

Post-Chorus:
Добавлено: 11.07.2013
Другие материалы по этой песне:
  • Аккорды и текст

Страница создана 28.02.2012
http://primanota.ru/john-mayer/whiskey-whiskey-whiskey-chords.htm
Привет, Гость.
Предлагаем пройти революционный курс по гитаре.
Подарок от PrimaNota.Ru, забирай!