PrimaNota.ru - самый крупный в мире бесплатный архив песенных текстов, аккордов, табулатур и нот


John Mayer - Wait Til Tomorrow - текст песни, таба, видео

Регистрация Запомнить меня
Войти через:  Facebook Google Twitter Vk Yandex Mail.ru

John Mayer - Wait Til Tomorrow - текст песни, таба, видео

Печатать
Просмотров: 116
-------------------------------------------------------------------------------
                             WAIT TIL TOMORROW - John Mayer
-------------------------------------------------------------------------------
Tabbed by: xadioriderx (Ryan)
Email:sk82x4@gmail.com

Tuning: Eb-Ab-Db-Gb-Bb-eb

This is the main part of the song, minus the solo. Mayer changes it up some here 
and there, quite a bit, but this will get you through the main parts!

Strum direction is listed above because that is one of the hardest things 
to gauge in this song. All deadened strums (except the rakes) are created
 like a palm mute but slightly away from the bridge so it completely deadens
 the strings. Your palm is just bouncing off the strings while youre making 
the strum - the best explanation is to try strumming the deadened strums with
 your only your palm. no sound? good, now add your pick in with it, you get 
deadened strums. 
Strums that are hyphenated together above the tab are quick - like you would 
play while palm muting  "down-up" on a single string - youre hand never leaves
 the strings on the down, it comes immediately up.



     d     d-u       d-u   d   d   d-u
eb|-----------------------------------------|
Bb|--9h10--x-9h10p9--x-x--------------------|
Gb|--9-----x-9-------x-x--------------------|
Db|--9h11--x-9h11p9--x-x-------9~-----------|
Ab|------------------------9h11-------------|
Eb|--------------------------------0-0------|

     d    d-u      d-u   d   d   d-u
eb|---------------------------------------|
Bb|--7h8--x-7h8p7--x-x--------------------|
Gb|--7----x-7------x-x--------------------|
Db|--7h9--x-7h9p7--x-x-------9~-----------|
Ab|----------------------9h11-------------|
Eb|------------------------------0-0------|

     d     d-u       d-u   d   d   d-u
eb|-----------------------------------------|
Bb|--9h10--x-9h10p9--x-x--------------------|
Gb|--9-----x-9-------x-x--------------------|
Db|--9h11--x-9h11p9--x-x-------9~-----------|
Ab|------------------------9h11-------------|
Eb|--------------------------------0-0------|

     d    d-u      d-u   d   d   d-u
eb|---------------------------------------|
Bb|--7h8--x-7h8p7--x-x--------------------|
Gb|--7----x-7------x-x--------------------|
Db|--7h9--x-7h9p7--x-x-------9~-----------|
Ab|----------------------9h11-------------|
Eb|------------------------------0-0------|

    d    d-u u  d   d   d-u d    (Up Rake)  d-u u-d-u   d d-u u-d
eb|------x-5-5------------------------------x-7-7-x-7--10-9-7-7-7----|
Bb|------x-5-5----------x-x------x----------x-7-7-x-7---7-7-7-7-10---|
Gb|------x-6-6----------x-x-7------x--------x-7-7-x-7---7-7-7-7-7----|
Db|------x-7-7----------x-x-7h9~-----x------x-7-7-x-7---7-7-7-7-7----|
Ab|-----------------7h9----------------x-----------------------------|
Eb|-0/5---------5/9----------------------0---------------------------|
  (thumb)                        

    d    d-u u  d   d   d-u d    (Up Rake)  d-u u-d-u   d d-u u-d
eb|------x-5-5------------------------------x-7-7-x-7--10-9-7-7-7----|
Bb|------x-5-5----------x-x------x----------x-7-7-x-7---7-7-7-7-10---|
Gb|------x-6-6----------x-x-7------x--------x-7-7-x-7---7-7-7-7-7----|
Db|------x-7-7----------x-x-7h9~-----x------x-7-7-x-7---7-7-7-7-7----|
Ab|-----------------7h9----------------x-----------------------------|
Eb|-0/5---------5/9----------------------0---------------------------|
  (thumb)                       

    d    d-u u-d   d         u    d-u  d-u u-d    d-u  d-u u-d
eb|------x-5-5-x---7/9\7/9\7-5---10-10-9-7-7-7---10-10-9-7-7-7---|
Bb|------x-5-5-x-------------5----7-7--7-7-7-10---7-7--7-7-7-10--|
Gb|------x-6-6-x---7/9\7/9\7------7-7--7-7-7-7----7-7--7-7-7-7---|
Db|------x-7-7-x------------------7-7--7-7-7-7----7-7--7-7-7-7---|
Ab|--------------------------------------------------------------|
Eb|-0/5----------------------------------------------------------|
  (thumb)  

    d    d-u u  d   d   d-u d       (Up Rake)  d-u u-d-u   d d-u u-d
eb|------x-5-5---------------------------------x-7-7-x-7--10-9-7-7-7----|
Bb|------x-5-5----------x-x---------x----------x-7-7-x-7---7-7-7-7-10---|
Gb|------x-6-6----------x-x-7h9p7-----x--------x-7-7-x-7---7-7-7-7-7----|
Db|------x-7-7----------x-x-7----h9-----x------x-7-7-x-7---7-7-7-7-7----|
Ab|-----------------7h9-------------------x-----------------------------|
Eb|-0/5---------5/9-------------------------0---------------------------|
  (thumb)                                            

you can play the above for the verses, although he changes it up slightly here and there.

prechorus:

    d    d-u  u   d    d-u  u   d u  d  u
eb|-----------------------------------------|
Bb|-9h10-x-10-10--9h10-x-10-10-10-10-10-10--|
Gb|-9----x--9-9---9----x--9-9---9-9---9-9---|
Db|-9h11-x-11-11--9h11-x-11-11-11-11-11-11--|
Ab|-----------------------------------------|
Eb|-----------------------------------------|

      d     u  d     u  d     u  d     u  d     u
eb|------------------------------------------------|
Bb|--10----10-10----10-10----10-10----10-10----10--|
Gb|---9-----9--9-----9--9-----9--9-----9--9-----9--|
Db|---9h11-11--9h11-11--9h11-11--9h11-11--9h11-11--|
Ab|------------------------------------------------|
Eb|------------------------------------------------|

chorus:

    d d d-u  d   d d  d  d        d   d  d
eb|-0-0-0-0--2/4-2-0------------------------|
Bb|-0-0-0-0--------0-----3--------5/7-5~-5~-|
Gb|-1-1-1-1--2/4-2-0-----2h3p2p0------------|
Db|-2-2-2-2-----------------------5/7-5~-5~-|
Ab|-2-2-2-2---------------------------------|
Eb|-0-0-0-0-----------3---------------------|
                   (thumb)

    d d d-u  d   d d  d  d        d   d
eb|-0-0-0-0--2/4-2-0--------------7/9-7~9---|
Bb|-0-0-0-0--------0-----3------------------|
Gb|-1-1-1-1--2/4-2-0-----2h3p2p0--7/9-7~9---|
Db|-2-2-2-2---------------------------------|
Ab|-2-2-2-2---------------------------------|
Eb|-0-0-0-0-----------3---------------------|
                   (thumb)

    d d d-u  d   d d  d  d        d   d  d     d   d
eb|-0-0-0-0--2/4-2-0--------------------------12+-------|
Bb|-0-0-0-0--------0-----3--------5/7-5~-5~---12+-------|
Gb|-1-1-1-1--2/4-2-0-----2h3p2p0--------------12+-------|
Db|-2-2-2-2-----------------------5/7-5~-5~---12+-------|
Ab|-2-2-2-2---------------------------------------------|
Eb|-0-0-0-0-----------3---------------------------x/x---|
                   (thumb)                      (Slide)

Then back to the start!


************************************

| /   slide up
| \   slide down
| h   hammer-on
| p   pull-off
| ~   vibrato
| +   harmonic
| x   Mute note
| b   Bend
| pb  Pre-bend
| br  Bend release
| pbr Pre-bend release
| brb Bend release bend

************************************
Добавлено: 02.05.2012
Другие материалы по этой песне:
  • Аккорды и текст

Страница создана 02.05.2012
http://primanota.ru/john-mayer/wait-til-tomorrow-chords.htm
Привет, Гость.
Предлагаем пройти революционный курс по гитаре.
Подарок от PrimaNota.Ru, забирай!