PrimaNota.ru - самый крупный в мире бесплатный архив песенных текстов, аккордов, табулатур и нот


John Mayer - The Wind Cries Mary - текст песни, таба, видео

Регистрация Запомнить меня
Войти через:  Facebook Google Twitter Vk Yandex Mail.ru

John Mayer - The Wind Cries Mary - текст песни, таба, видео

Печатать
Просмотров: 128
Уроки эстрадного вокала в Санкт-Петербурге
Авторы музыки: Jimi Hendrix
Авторы текста: Jimi Hendrix
Please note: I cannot get this to line up correctly when I paste it,
especially the solo part.
 
 
John Mayer
Wind Cries Mary (Jimi Hendrix Cover)
Tabbed by: Joe Rotondo (jjr0319@hotmail.com)
Disclaimer: In no way do I claim this to be official, it's just my
interpretation of the song.  Use variation were required.
Standard Tuning
EADGBE
Key
\  Slide down (towards headstock)
/  Slide up (towards bridge)
h  Hammer
p  Pull off
xxxxx - Pick mute
D  Downstroke
U  Upstroke
 

Intro Part 1 (XXXXX - sometimes raked upwards):
-------------------
--7----8----9----X-
--7----8----9----X-
--7----8----9----X-
--5----6----7----X-
-------------------
Intro Part 2
--------------------------
-7-----8------9-----------
-7-----8------9-----------
-7-----8------9-----------
-7h9---8h10---9h11--------
--------------------------
 

Fill to Verse:                             Alternate Fill (used in Chorus
after Intro Part 1):
------------------------------                   ----12/14---12-----------
------------------------------                   ----12/14---12-----------
------------------------------                   ----------------13--11\--
-----------9--9h11p9----------                   -------------------------
-----9h11-------------11\-----                   ------------------------- 
12----------------------------                   -------------------------
 
Verse:
 
--------7-------------5-----------------
--------7-------------5-----------------
--------8-------------6-----------------
--------9-------------7-----------------
--------9-------------7---0--2/---------
-7--7-------6--5--5-------0--0----------
 
Verse Fills in E major Pentatonic (9th position):
Sample 1:
-----------------------------------------
-------------9---------------------------
--------9----9h11--9---------------------
--9-----9h11-------9h11--9---------------
--9h11-------------------9h11------------
------------------------------12\--------
Sample 2:
--------------------------------------------
-------------9-------12---11p9--------------
--------9----9-------9----9-----11p9--------
--9-----9h11--------------------9-----------
--9h11--------------------------------------
--------------------------------------------

Fill after "Shine emptiness down, down on my bed"
--0---0----0---0---0-----------
----5----4---2---0-----0-------
---------------------4---2/----
-------------------------------
-------------------------------
-------------------------------

Chorus ("Footprints dressed in red....", "And the wind....", etc)
------D2-U2------D5-U5------
------D2-U2------D5-U5------
------D3-U3------D6-U6------
------D4-U4------D7-U7------  ------>Then to Intro Part 1
--4-4-------7-7-------------
--2-2-------5-5-------------
 
Solo
---------12\--------------------------------------------------------------------
----------
---------12\-----10-----------10-----------9-------9----------------------------
----------
-----------------9h11p9-------9-----9------9h11----9------------9---------------
----------
--------------------------12--------9h11---------------9--------9h11----9-------
----------
-------------------------------------------------------9h11-------------9h11p9--
----------
--7-7-7-------------------------------------------------------------------------
--12\-----

----------12\--12\--------------------------------------------------------------
---------------------------
----------12\--12\----10----------10----------------12--------------------------
---------------------------
----------------------9h11p9------9-----------9-----9----11p9--------------9h11-
-----9-----9h11-9----------
------------------------------12--------9-----9-----9----9-----11p9--9-----9----
9----9h11--9----9h11-------
----------------------------------------9h11--9----------------9-----9h11--9----
9h11------------------11\--
--7--7--------------------------------------------------------------------------
---------------------------

--------12\---------------------------------------------------------------------
------------------
--------12\---10----------10----------------9h12p9------------------------------
------------------
--------------9h11p9------9---------9-------9-------9h11p9---9--------------9---
------------------
----------------------12------9-----9h11------------9--------9h11p9---9-----9---
9-----------------
------------------------------9h11------------------------------------9h11------
9h11p9------------
--/7----------------------------------------------------------------------------
----------12\-----
 
I definetly didn't tab out every strum here, but you get the idea:
--2-2-2--2----2-2/----5-5-5--------9--8--7--/5------------5----12--12--11--10--/
8--------------
--2-2-2--2----2-2/----5-5-5-------------------------------5---------------------
---------------
--3-3-3--3h4--3-3/----6-6-6--------9--8--7--/6------------6----12--12--11--10--/
9--------------
--4-4-4--4----4-4/----7-7-7-------------------------------7---------------------
---------------
--4-4-4--4----4-4/----7-7-7---------------------------7---7---------------------
---------------
--2-2-2--2----2-2/----5-5-5---------------------0
2/--5---5------------------------------------

--------------------------------------------------------------------------------
-------------------
----------------12------------12------------12----------------------------------
-------------------
----------------11h13p11------11h13p11------11h13p11----------9-----9--9--------
-------------------
--------------------------14------------14------------14\-----9h11--9--11p9-----
-------------------
-----------------------------------------------------------------------------12-
-11----------------
--0--/12--12--------------------------------------------------------------------
--------------12\--
 

Outro is same as Intro Parts, with slight vibrato on the last chord. 
 
 
Ok, that's it.  A lot of the song is improvised.  This was tabbed mainly
for a guiding purposes. 
Please send any comments/suggestions to jjr0319@hotmail.com
Thanks a lot.
 
 
 
 

________________________________________________________________________________
     
Добавлено: 24.08.2013
Другие материалы по этой песне:

Страница создана 25.07.2012
http://primanota.ru/john-mayer/the-wind-cries-mary-chords.htm
Привет, Гость.
Предлагаем пройти революционный курс по гитаре.
Подарок от PrimaNota.Ru, забирай!