PrimaNota.ru - самый крупный в мире бесплатный архив песенных текстов, аккордов, табулатур и нот


John Mayer - St Patricks Day Live - таба, видео

Регистрация Запомнить меня
Войти через:  Facebook Google Twitter Vk Yandex Mail.ru

John Mayer - St Patricks Day Live - таба, видео

Печатать
Просмотров: 88
-------------------------------------------------------------------------------
                             ST PATRICKS DAY - John Mayer (Live at Conan, 2005)
-------------------------------------------------------------------------------
Tabbed by: Jory Vale

Tuning: standard

Intro

e|---0---|
B|---7---|
G|---8---|
D|---6---|
A|---x---|
E|---0---|



Verse

e|---0-----0--7-----0--7-----7-----5---|
B|---7-----7--7-----5--5-----5--5--5---|
G|---8-----8--9-----7--6-----5--4--4---|
D|---6-----6--9-----6--6-----5--4--4---|
A|---x-----x--x-----x--x-----x--x--x---|
E|---0-----8--9-----6--5-----5--4--3---|

On the 3rd chord (9x9977), John often adds the 9th fret on the 2nd string, so

e|---7--7--7---|
B|---7--9--7---|
G|---9--9--9---|
D|---9--9--9---|
A|---x--x--x---|
E|---9--9--9---|



Pre-chorus

"Who knows, what will be..."

e|------0-----0--0--0---|
B|---3--5-----2--2--0---|
G|---4--6-----2--2--2---|
D|---2--6-----0--0--0---|
A|---x--x-----x--x--x---|
E|---4--5-----2--3--3---|



Chorus

"No way November will see..."

e|----------------------------------------|
B|--10----9---12---10----9------------9---|
G|--11---11---11---11---10---10--11--10---|
D|---9----9----9----9----9----9---9---9---|
A|---x----x----x----x----x----x---x---x---|
E|---0----0---11---10----9----9--11---9---|

"No one wants to be alone..."

e|---9---(9)---7---(7)---0---|
B|--10----9----8----7----0---|
G|---9----9----7----7----2---|
D|--11----9----9----7----2---|
A|---9---11----7----9----0---|
E|-----------------------x---|

e|---0---|
B|---7---|
G|---8---|
D|---6---|
A|---x---|
E|---0---|



Repeat verse, then straight to chorus again.



Interlude

"And we'll both be safe..."

e|---9---(9)---0---0---0---|
B|--10----9----5---0---7---|
G|---9----9----6---8---8---|
D|--11----9----7---7---6---|
A|---9---11----x---x---x---|
E|-------------5---7---0---|



Bridge

"We should take a ride tonight..."

e|---7---5---0-------7---5---0---|
B|---5---5---3----3--5---5---3---|
G|---5---5---4----4--5---5---4---|
D|---5---4---4----2--5---4---4---|
A|---x---5---x----x--x---5---x---|
E|---5-------3----4--5-------3---|

"Every..."            "...body, it seems to me..."

e|---0--0--0---|      |---5---0---0---x---|
B|---3--2--2---|      |---3---3---8---8---|
G|---4--3--2---|      |---0---6---7--11---|
D|---4--3--1---|      |---4---5--10--10---|
A|---x--x--x---|      |---x---x---x---x---|
E|---3--2--1---|      |---0---5---8--10---|



The rest is just repetition of sections already transcribed:
Chorus, Interlude.

Outro

e|---0--0--0---|
B|---7--5--0---|
G|---8--6--8---|
D|---6--7--7---|
A|---x--x--x---|
E|---0--5--7---|
Добавлено: 12.09.2015
Вам также может быть интересно:
Другие материалы по этой песне:
  • Аккорды и текст

Страница создана 12.09.2015
http://primanota.ru/john-mayer/st-patricks-day-live-chords.htm
Привет, Гость.
Предлагаем пройти революционный курс по гитаре.
Подарок от PrimaNota.Ru, забирай!