PrimaNota.ru - самый крупный в мире бесплатный архив песенных текстов, аккордов, табулатур и нот


John Mayer - Neon Live - таба, видео

Регистрация Запомнить меня
Войти через:  Facebook Google Twitter Vk Yandex Mail.ru

John Mayer - Neon Live - таба, видео

Печатать
Просмотров: 90


     Q       Q     Q     Q        Q     Q     Q     Q     
E||---------------------------|---x-----x-----x-----x----|
B||-------9g10-----L----10----|--10----10----10----10----|
G||--------7g8-----L-----8----|---8-----8-----8-----8----|
D||--------7g8-----L-----8----|---8-----8-----8-----8----|
A||---------------------------|---x-----x-----x-----x----|
C||--0------------------------|---0-----0-----0-----0----|


   Q     Q     Q     Q       E  E   E  E    E  E   E  E   
---x-----x-----L-----x----|------------------------------|
--10----10-----L----10----|------------------------------|
---8-----8-----L-----8----|------------------------------|
---8-----8-----L-----8----|------------------------------|
---x-----x-----L-----x----|------------------------------|
---0-----0-----L-----0----|-----7--10--0--7g9--L--12--0--|


  E   E    E   E   E   E    E   E      E  E   E  E    E  E   E  E   
-------------------x----------------|--x---------------------------|
----------10-------x-------10-------|--x---------------------------|
-----------8-------x--------8-------|--x---------------------------|
-----------8-------x--------8-------|--x---------------------------|
-----(0)------(0)--x--(0)------(0)--|--x---------------------------|
-------------------x----------------|--x--7--10--0--7g9--L--12--0--|


  E   E    E   E   E   E    E   E      E  E   E  E    E  E   E  E   
-------------------x----------------|--x---------------------------|
----------10-------x-------10-------|--x---------------------------|
-----------8-------x--------8-------|--x---------------------------|
-----------8-------x--------8-------|--x---------------------------|
-----(0)------(0)--x--(0)------(0)--|--x---------------------------|
-------------------x----------------|--x--7--10--0--7g9--L--12--0--|


  E   E    E   E   E   E    E   E      E  E   E  E    E  E   E  E   
-------------------x----------------|--x---------------------------|
----------10-------x-------10-------|--x---------------------------|
-----------8-------x--------8-------|--x---------------------------|
-----------8-------x--------8-------|--x---------------------------|
-----(0)------(0)--x--(0)------(0)--|--x---------------------------|
-------------------x----------------|--x--7--10--0--7g9--L--12--0--|


  E   E    E   E   E   E    E   E      E  E  E  E  E   E   E  E   
-------------------x----------------|--x-------------------------|
----------10-------x-------10-------|--x-------------------------|
-----------8-------x--------8-------|--x-----8-----8---L--10--L--|
-----------8-------x--------8-------|--x-----8-----8---L--10--L--|
-----(0)------(0)--x--(0)------(0)--|--x-------------------------|
-------------------x----------------|--x--7--------9---L--12--L--|


  E   E   E   E   E   E   E   E      E  E  E  E  E   E   E  E   
------------------x---------------|--x-------------------------|
------------------x---------------|--x-------------------------|
----------8-------x-------8-------|--x-----8-----8---L--10--L--|
----------8-------x-------8-------|--x-----8-----8---L--10--L--|
-----(0)-----(0)--x--(0)-----(0)--|--x-------------------------|
--0---------------x---------------|--x--7--------9---L--12--L--|


  E   E   E   E   E   E   E   E      E  E  E  E  E   E   E  E   
------------------x---------------|--x-------------------------|
------------------x---------------|--x-------------------------|
----------8-------x-------8-------|--x-----8-----8---L--10--L--|
----------8-------x-------8-------|--x-----8-----8---L--10--L--|
-----(0)-----(0)--x--(0)-----(0)--|--x-------------------------|
--0---------------x---------------|--x--7--------9---L--12--L--|


  E   E   E   E   E   E   E   E      E  E  E  E  E   E   E  E   
------------------x---------------|--x-------------------------|
------------------x---------------|--x-------------------------|
----------8-------x-------8-------|--x-----8-----8---L--10--L--|
----------8-------x-------8-------|--x-----8-----8---L--10--L--|
-----(0)-----(0)--x--(0)-----(0)--|--x-------------------------|
--0---------------x---------------|--x--7--------9---L--12--L--|


  E   E   E   E   E   E   E   E      E   E    E  E      E   E  E  E   
------------------x---------------|--x-------------------------------|
------------------x---------------|--x-------------------------------|
----------8-------x-------8-------|--x-------10-----10g11--10--8--L--|
----------8-------x-------8-------|--x-------10-----10g11--10--8--L--|
-----(0)-----(0)--x--(0)-----(0)--|--x--(0)--------------------------|
------------------x---------------|--x-------------------------------|


  E   E   E   E   E   E   E   E      E   E    E  E      E   E  E  E   
--x---------------x---------------|--x-------------------------------|
--x---------------x---------------|--x-------------------------------|
--x-------8-------x-------8-------|--x-------10-----10g11--10--8--L--|
--x-------8-------x-------8-------|--x-------10-----10g11--10--8--L--|
--x--(0)-----(0)--x--(0)-----(0)--|--x--(0)--------------------------|
--x---------------x---------------|--x-------------------------------|


  E  E  E  E  E  E   E   E     E  E   E  E  E   E   E     E   
--------x-----x-------------|--x-----------------------------|
--------x-----x-------------|--x-----------------------------|
-----8--x--8--x-----12--12--|--x-----------------------------|
-----8--x--8--x-----12--12--|--x-----------------------------|
--------x-----x-------------|--x-----------------------------|
--0-----x--7--x-----10--10--|--x--7--10--0--9--12--14brb--L--|


  E  E  E  E  E  E   E   E     E  E   E  E  E  E  E   E   
--------x-----x-------------|--x-------------------------|
--------x-----x-------------|--x-------------------------|
-----8--x--8--x-----12--12--|--x-------------------------|
-----8--x--8--x-----12--12--|--x-------------------------|
--------x-----x-------------|--x-------------------------|
--0-----x--7--x-----10--10--|--x--7--10--0--9--L--9s--7--|


  E  E  E  E  E  E   E   E     E  E   E  E  E   E   E     E   
--------x-----x-------------|--x-----------------------------|
--------x-----x-------------|--x-----------------------------|
-----8--x--8--x-----12--12--|--x-----------------------------|
-----8--x--8--x-----12--12--|--x-----------------------------|
--------x-----x-------------|--x-----------------------------|
--0-----x--7--x-----10--10--|--x--7--10--0--9--12--14brb--L--|


  E  E  E  E  E  E   E   E     E  E   E  E   E  E   E   E   
--------x-----x-------------|------------------------------|
--------x-----x-------------|------------------------------|
-----8--x--8--x-----12--12--|------------------------------|
-----8--x--8--x-----12--12--|------------------------------|
--------x-----x-------------|------------------------------|
--0-----x--7--x-----10--10--|-----7--10--0--12--0--10--12--|


  E   E   E  E   E   E  E   E     E   E   E  E   Q        Q      
-------------------------------|--------------------------------|
-------------------------------|--------------------------------|
-------------------------------|--------------------------------|
-------------------------------|--------------------------------|
-------------------------------|--------------------------------|
--0--10--12--0--10--12--0--12--|--0--10--12--0--14brb----14b----|


  E   E   E  E   E   E  E   E     E   E   E  E   Q      Q        
-------------------------------|--------------------------------|
-------------------------------|--------------------------------|
-------------------------------|--------------------------------|
-------------------------------|--------------------------------|
-------------------------------|--------------------------------|
--0--10--12--0--10--12--0--12--|--0--10--12--0--14b----14brb----|


  E   E   E  E   E   E  E   E     E   E   E  E   E  E   E  E   
-------------------------------|------------------------------|
-------------------------------|------------------------------|
-------------------------------|------------------------------|
-------------------------------|------------------------------|
-------------------------------|------------------------------|
--0--10--12--0--10--12--0--12--|--0--10--12--0--15--0--17--0--|


   Q      E   E   E   E   E   E      E   E   Q      E   E  Q     
---------------------------------|------------------------------|
---------------------------------|------------------------------|
---------------------------------|------------------------------|
---------------------------------|------------------------------|
---------------------------------|------------------------------|
--17b----17--15--17--15--12--10--|--10--12--13b----12--10--7----|


  E  E  E  E  E  E   E   E     E  E   E  E    Q     Q     
--------x-----x-------------|--x-------------------------|
--------x-----x-------------|--x-------------------------|
-----8--x--8--x-----12--12--|--x-------------------------|
-----8--x--8--x-----12--12--|--x-------------------------|
--------x-----x-------------|--x-------------------------|
--0-----x--7--x-----10--10--|--x--7--10--0--7g9----12----|


  E  E  E  E  E  E   E   E     E  E   E  E   Q     Q        
--------x-----x-------------|--x---------------------------|
--------x-----x-------------|--x---------------------------|
-----8--x--8--x-----12--12--|--x---------------------------|
-----8--x--8--x-----12--12--|--x---------------------------|
--------x-----x-------------|--x---------------------------|
--0-----x--7--x-----10--10--|--x--7--10--0--12----12brb----|


  E  E  E  E  E  E   E   E     E  E   E  E    Q     Q     
--------x-----x-------------|--x-------------------------|
--------x-----x-------------|--x-------------------------|
-----8--x--8--x-----12--12--|--x-------------------------|
-----8--x--8--x-----12--12--|--x-------------------------|
--------x-----x-------------|--x-------------------------|
--0-----x--7--x-----10--10--|--x--7--10--0--7g9----12----|


                                    ^  v                           
  E  E  E  E  E  E   E   E     Q    E  E   H                       
--------x-----x-------------|-------x--x-------------|-----------||
--------x-----x-------------|-------x--x-------------|-----------||
-----8--x--8--x-----12--12--|-------x--x-------------|-----------||
-----8--x--8--x-----12--12--|-------x--x-------------|-----------||
--------x-----x-------------|-------x--x-------------|-----------||
--0-----x--7--x-----10--10--|-------x--x--12\--------|-----------||




Duration Legend
---------------
W - whole
H - half
Q - quarter
E - 8th
S - 16th
T - 32nd
X - 64th
. - note dotted
|-n-|  - n-tuplets


Tablature Legend
----------------
L - tied note
x - dead note
g - grace note
(n) - ghost note
> - accentuded note
NH - natural harmonic
AH - artificial harmonic
TH - tapped harmonic
SH - semi harmonic
PH - pitch harmonic
h - hammer on
p - pull off
b - bend
br - bendRelease
pb - preBend
pbr - preBendRelease
brb - bendReleaseBend
\n/ - tremolo bar dip
\n - tremolo bar dive
-/n - tremolo bar Release up
/n\ - tremolo bar inverted dip
/n - tremolo bar return
-\n - tremolo bar Release down
S - shift slide
s - legato slide
/ -  slide into from below or out of upwards
\ -  slide into from above or out of downwards
~ - vibrato
W - wide vibrato
tr - trill
TP - tremolo picking
T - tapping
S - slap
P - pop
< - fade in
^ - brush up
v - brush down
Добавлено: 28.10.2013
Другие материалы по этой песне:

Страница создана 22.05.2012
http://primanota.ru/john-mayer/neon-live-chords.htm
Привет, Гость.
Предлагаем пройти революционный курс по гитаре.
Подарок от PrimaNota.Ru, забирай!