PrimaNota.ru - самый крупный в мире бесплатный архив песенных текстов, аккордов, табулатур и нот


John Mayer - Love Is A Verb - аккорды и текст, таба, видео

Регистрация Запомнить меня
Войти через:  Facebook Google Twitter Vk Yandex Mail.ru

John Mayer - Love Is A Verb - аккорды и текст, таба, видео

Печатать
Просмотров: 158
Авторы музыки: John Mayer
Авторы текста: John Mayer
Love Is A Verb
John Mayer
Love is a verb
Tabbed by Rocio

This is how JMayer plays Love is a verb. It's not so complicated, so have a go at it!
I think the tab is 100% accurate. Don't forget to rate, comment... :)

Intro:

e|--------------------------------------------------|
B|---9-------9------9------------------9------------|
G|---9-------9------9------------------9------------|
D|---9-------9------11----------7--7---9------------|
A|---9/11/9--11-----0-------7---7--9---9/11---------|
E|---0--------------9-------7/9--------0------------|


e|--------------------------------------------------|
B|--7/9----------9------9/10------9-----------------|
G|--7/9--11--9---9------9-9-------9-----------------|
D|-------11--9---11-----9/11------9-----------------|
A|---------------0------0---------9/11--------------|
E|---------------9----------------0-----------------|

Chords(for the entire song)**:

     E       A       B       A
e|----------------------------------------|
B|---9-------9-------7-------9------------|
G|---9-------9-------8-------9------------|
D|---9-------11------9-------9------------|
A|---9/11----0-------x-------9/11---------|
E|---0-------9-------7-------0------------|

** There are some little parts in the song when he adds a new chord. Check it out:

     E       A       B      C#m
e|----------------------------------------|
B|---9-------9-------7/9-----9------------|
G|---9-------9-------8-------9------------|
D|---9-------11------9-----9/11-----------|
A|---9/11----0-------x-----9/11-----------|
E|---0-------9-------7-------9------------|


E          A
Love is a verb
B           E
It ain't a thing
           E           A       
It's not something you own
            B             E
It's not something you scream
E                  A
When you show me love,
   B               C#m
I don't need your words**
        E            A
Yeah, love ain't a thing
 B          A
Love is a verb
E             A
Love ain't a thing
B          E
Love is a verb

E A B C#m  E A B E

 E             A
Love ain't a crush
    B           E
It ain't an excuse
         E                 A
No, you can't get through love
           B           E
On just a pile of I.O.U.s
E              A
Love ain't a drug
     B               C#m
Despite what you've heard**
       E              A
Yeah, love ain't a thing
 B         E
Love is a verb
  E             A
Love ain't a thing
  B         E
Love is a verb

              E         A
So you gotta show show show me 
 B         E    
show show show me
 E         A
Show show show me 
      B          E
That love is a verb
                 E         A   
Yeah, you gotta show show show me 
 B         C#m
show show show me**
 E          A
Show show show me
       B        E
That Love is a verb
 E            A
Love ain't a thing
 B          E
Love is a verb  
Добавлено: 22.02.2012
Другие материалы по этой песне:
  • Аккорды и текст

Страница создана 22.02.2012
http://primanota.ru/john-mayer/love-is-a-verb-chords.htm
Привет, Гость.
Предлагаем пройти революционный курс по гитаре.
Подарок от PrimaNota.Ru, забирай!