PrimaNota.ru - самый крупный в мире бесплатный архив песенных текстов, аккордов, табулатур и нот


John Mayer - I Dont Need No Doctor Where The Light Is Live - таба, видео

Регистрация Запомнить меня
Войти через:  Facebook Google Twitter Vk Yandex Mail.ru

John Mayer - I Dont Need No Doctor Where The Light Is Live - таба, видео

Печатать
Просмотров: 129
-------------------------------------------------------------------------------
     I Don't Need No Doctor (SOLO) [Live Where the Light Is] - John Mayer
-------------------------------------------------------------------------------
Tabbed by: Daniel Adam Schmetterling
E-mail: dschmett58@gmail.com

Tuning: Standard E tuning

e|---------------------------------------------------------------------------|
B|---------------------------14p12-------------------------------------------|
G|-------12b14--14p12--------14p12--x----------------------------------------|
D|--------------------14------------x--14p12--14p12--------------------------|
A|--------------------------------------------------------12-----------------|
E|---0--------------------0--------------------------15--------15p12---------|

e|---------------------------------------------------------------------------|
B|-------14p12--14p12---15p12------14p12----------14p12--14p12---------------|
G|-------14p12--14p12--------------14p12----------14p12--14p12---------------|
D|----------------------------12---------14----------------------------------|
A|---------------------------------------------------------------------------|
E|---0----------------------------------------0------------------------------|

e|------------------------------------12--------12-12-------12-12-------12-12|
B|------14p12-------14p12-------15b17-----15b17-------15b17-------15b17------|
G|------14p12-------14p12----------------------------------------------------|
D|-------------14----------14------------------------------------------------|
A|---------------------------------------------------------------------------|
E|---------------------------------------------------------------------------|

e|---------------------------------------------------------------------------|
B|-----15p12----------------------12h14-14b15--14--12h14---------------------|
G|-----------14b15r14p12----12h14-------------------------12b14--------------|
D|-----------------------14--------------------------------------14p12-------|
A|---------------------------------------------------------------------------|
E|---------------------------------------------------------------------------|

e|-----------------------------------------------0---------0-----------------|
B|------------------------------------------3b5----3p0-------3p0-------------|
G|-----------------------------------------------------2/4-------3-2p0-------|
D|-------14\-12\-11\--9\-7\-6\-4\--------------------------------------2-----|
A|----14/16\-14\-12\-10\-9\-7\-6\--------------------------------------------|
E|---------------------------------3b3.5p0-----------------------------------|

e|---------------------------------------------------------------------------|
B|----3p0-------------0------------------------------------------------------|
G|--------3-2p0---0h2---2p0---0----------------------------------------------|
D|--------------2-----------2---2p0---0h2-0h2-0h2-0h2-0h2-0h2----------------|
A|----------------------------------2----------------------------------------|
E|---------------------------------------------------------------------------|

e|---------------------------------------------------------------------------|
B|---------------------------------------------------------------------------|
G|---------------------------------------------------------------------------|
D|------------------------------5--------------------------------7(p5)-------|
A|------------5h7-----------5h7----7p5---------5h7-----------5h7-------7p5---|
E|----0---5/7-------0---5/7------------0---5/7-------0---5/7-----------------|

e|---------------------------------------------------------------------------|
B|-------------------------------------------14---14---14---14---14-14-------|
G|-------------------------------------------14---14---14---14---14-14-------|
D|------------------------------5--------------------------------------------|
A|------------5h7-----------5h7----7p5---------------------------------------|
E|----0---5/7-------0---5/7------------0--------------------------------(0)--|

e|---------------------------------------------------------------------------|
B|-----14p12---14p12-----14p12----14p12--------14p12---14p12-----------------|
G|-----14p12---14p12-----14p12----14p12--------14p12---14p12-----------------|
D|-------------------14--------14-------14-------------------14--------------|
A|---------------------------------------------------------------------------|
E|-----------------------------------------(0)-------------------------------|

e|---------------------------------------------------------------------------|
B|-----14p12-----14b15r14p12----------14p12---14p12-----14p12----14p12-------|
G|-----14p12-----14b15r14p12----------14p12---14p12-----14p12----14p12-------|
D|-----------14--------------14---------------------14--------14-------14----|
A|---------------------------------------------------------------------------|
E|-------------------------------(0)-----------------------------------------|

e|---------------------------------------------------------------------------|
B|----[------12-]---------------14p12---14p12--xxxx--(12)-12\-10\-8----------|
G|----[-14b16---]--x8ish--------14p12---14p12--xxxx--(12)-12\-11\-9----------|
D|---------------------------------------------------------------------------|
A|---------------------------------------------------------------------------|
E|------------------------(0)-----------------------------------------0------|

e|---------------------------------------------------------------------------|
B|----14p12---14p12---15---------------------------------14p12---14p12-------|
G|----14p12---14p12-------pb15r14p12---------------------14p12---14p12-------|
D|-----------------------------------14--x---------x-------------------------|
A|---------------------------------------x---------x-------------------------|
E|------------------------------------------3b3.5-----0----------------------|

e|---------------------------------------------------------------------------|
B|-----14p12--------------------------------14p12--14-12-12------------------|
G|-----14p12--------------------------------14p12--14-12-12------------------|
D|-----------14--x---------x----------x--------------------------------------|
A|---------------x---------x----------x--------------------------------------|
E|------------------3b3.5(p0)--5b5.5(p0)-0-----------------------------------|

e|---------------------------------------------------------------------------|
B|---------------------------------------------------------------------------|
G|-----7/9-7/9-7/9--7/9-7/9--7-----------------------------------------------|
D|------------------------------7p5-----5h7/9-5-------5-5h7-7b8r7p5----------|
A|----------------------------------7-7---------7p5h7---------------7p5h7----|
E|---------------------------------------------------------------------------|

e|-----------------------------------------------|------------12\--|---------|
B|-------------------------11\--------------12\--|------------12\--|---------|
G|-------------------------11\--------------12\--|-----------------|---------|
D|-----x---------x-------------------------------|-----------------|-x2------|
A|-----x---------x-------------------------------|-----------------|---------|
E|--------3b3.5(p0)--5b5.5(p0)--0h3b3.5p0-0------|--0h3b3.5p0-0----|---------|

e|--------------------12---------------14-14-14-14---------------------------|
B|--------------------12--a-few-times--14-14-14-14--14b15.5r14-12------------|
G|--------------------12---------------14-14-14-14--14b15.5r14-12------------|
D|-----------------------------------------------------------------14--------|
A|---------------------------------------------------------------------------|
E|-----0h3b3.5p0-0-----------------------------------------------------------|

e|---------------------------------------------------------------------------|
B|-----14p12-------12h14b15.5--12---------14b15.5r14-12----14p12------[10]---|
G|-----14p12-------12h14b15.5--12---------14b15.5r14-12----14p12------[11]x6-|
D|-----------14-14----------------14(p12)---------------14-------14-x--------|
A|---------------------------------------------------------------------------|
E|---------------------------------------------------------------------------|

e|-------------------------------12-12------------12-12----------------------|
B|-----14b15.5r14-12---14p12-----15-15-for-a-bit--15-15-for-a-bit-more-------|
G|-----14b15.5r14-12---14p12----------------------14-14----------------------|
D|---------------------------14----------------------------------------------|
A|---------------------------------------------------------------------------|
E|---------------------------------------------------------------------------|

e|----|--12--12-12-12-12--|-------|--12-12--|--------------------------------|
B|----|--15--15-15-15-15--|-------|--15-15--|--------------------------------|
G|----|--12--14-14-14-12--|--x2---|--12-14--|--x5----------------------------|
D|----|-------------------|-------|---------|--------------------------------|
A|----|-------------------|-------|---------|--------------------------------|
E|----|-------------------|-------|---------|--------------------------------|

e|-----12-----12----12-----12-12-12--12--(12)--------------------------------|
B|-----15-----15----15-----15-15-15--15--(15)--------------------------------|
G|-----14b15--14p12-14p12--------12-----(strum)------------------------------|
D|-------------------------14-14-----14--(14)--------------------------------|
A|---------------------------------------------------------------------------|
E|---------------------------------------------------------------------------|


THIS PART IS A DUET:

JOHN MAYER
e|---------------------------------------------------------------------------|
B|----12--14--14b15--14p12--------14b15--14p12-------------------------------|
G|-------------------------14p12---------------14p12-------------------------|
D|----------------------------------------------------14--12-----------------|
A|---------------------------------------------------------------------------|
E|---------------------------------------------------------------------------|

e|---------------------------------------------------------------------------|
B|-----14b15--14p12--------14b15--14p12--------------------------------------|
G|------------------14p12---------------14p12--------------------------------|
D|--------------------------------------------14p12--------------------------|
A|--------------------------------------------------14p12--------------------|
E|--------------------------------------------------------15-----------------|

e|-----------------------------------------------12--------------------------|
B|------14b15--14p12--------14b15--14p12------------15p12--------------------|
G|-------------------14p12---------------14(p12)----------14b15r14p12--------|
D|--------------------------------------------------------------------14(p12)|
A|---------------------------------------------------------------------------|
E|---------------------------------------------------------------------------|

e|---------------------------------------------------------------------------|
B|------14b15--14p12--------14b15--14p12-------------------------------------|
G|-------------------14p12---------------14p12------12-----------------------|
D|----------------------------------------------14---------------------------|
A|---------------------------------------------------------------------------|
E|---------------------------------------------------------------------------|

e|---------------------------------------------------------------------------|
B|------14b15--14p12--------14b15--14p12-------------------------------------|
G|-------------------14p12---------------14p12-------------------------------|
D|----------------------------------------------14--12-----------------------|
A|---------------------------------------------------------------------------|
E|---------------------------------------------------------------------------|

e|---------------------------------------------------------------------------|
B|-----14b15--14p12--------14b15--14p12--------------------------------------|
G|------------------14p12---------------14p12--------------------------------|
D|--------------------------------------------14p12--------------------------|
A|--------------------------------------------------14p13p12-----------------|
E|-----------------------------------------------------------15p12-----------|

e|---------------------------------------------------------------------------|
B|------14b15--14p12--------14b15--14p12-------------------------------------|
G|-------------------14p12---------------14p12-------------------------------|
D|----------------------------------------------14--12-----------------------|
A|---------------------------------------------------------------------------|
E|---------------------------------------------------------------------------|

e|---------------------------------------------------------------------------|
B|------14b15--14p12--------14b15--14p12----------------------0h2p0-3--some--|
G|-------------------14p12---------------14p12-------------------------stuff-|
D|----------------------------------------------14--12-----------------here--|
A|-------------------------------------------------------------(improv-outro)|
E|------------------------------------------------------0--------------------|

PROBABLY ROBBIE MCINTOSH
e|---------------------------------------------------------------------------|
B|----------------------------------------------------------repeatedly-------|
G|-----14b15.5--14p12--------14b15.5--14p12----------------or-so-it-seems----|
D|--------------------14p12-----------------14p12----------(rather-quiet)----|
A|-------------------------------------------------12------------------------|
E|----------------------------------------------------15---------------------|

************************************

| /   slide up
| \   slide down
| h   hammer-on
| p   pull-off
| ~   vibrato
| +   harmonic
| x   Mute note
| b   Bend
| pb  Pre-bend
| br  Bend release
| pbr Pre-bend release
| brb Bend release bend

************************************
Добавлено: 12.09.2015
Другие материалы по этой песне:
  • Аккорды и текст

Страница создана 12.09.2015
http://primanota.ru/john-mayer/i-dont-need-no-doctor-where-light-is-live-chords.htm
Привет, Гость.
Предлагаем пройти революционный курс по гитаре.
Подарок от PrimaNota.Ru, забирай!