PrimaNota.ru - самый крупный в мире бесплатный архив песенных текстов, аккордов, табулатур и нот


John Mayer - Gravity (ver 2) Live - таба, видео

Регистрация Запомнить меня
Войти через:  Facebook Google Twitter Vk Yandex Mail.ru

John Mayer - Gravity (ver 2) Live - таба, видео

Печатать
Просмотров: 63
Уроки эстрадного вокала в Санкт-Петербурге
-----------------------------------------------------------------
                   Gravity Live - John Mayer  
-----------------------------------------------------------------

Tabbed By : Aeonoptic
e-mail: aeonoptic@gmail.com

Tuning: EADGBe

****From the TRY! Live album****

Intro
  G                               C                                          G
E|------------------3----3-3-----|------------------------------------------|------------------3---3-3-----|
B|---8-8-10brb12~~~-3h5--3-5--3--|---8-8-h10b12-10b12-10-10~~-------------5-|---8-8-10brb12~~~-3h5-3-5-3---|
G|/9--------------------------2h4|/9--------------------------------5/7---5-|/9------------------------2h4~|
D|-------------------------------|--------------------------------5-7/9-7-7~|------------------------------|
A|-------------------------------|----------------------------5h7-----------|------------------------------|
E|-------------------------------|------------------------------------------|------------------------------|

  C
E|------------------------------------------------------------|
B|---8-8-h10b12-10b12-8-8~~-----------------------------------|
G|/9----------------------------5---5---5/7-5----------5------|
D|------------------------------5h7-5h7-7/9-7-5-7------5h7-5--|
A|--------------------------5-7-------------------5h7--------7|
E|------------------------------------------------------------|

Verse 1
  G                   C                        G                    C
E|-------------------|------------------------|-----------------3--|---------------------------|
B|---3------------3--|------------------------|---3----------3--3h5|5----8-------8--------8----|
G|---4----4-5-4---2h4|----------5/7-5---------|---4----4-5-4-4-----|5----9---------9------9----|
D|---5--5-5-5-5------|--5--7-5--7/9-7--5---5-7|---5--5-5-5-5-5-----|5---------10---------10----|
A|-------------------|7------------------7----|--------------------|7------7---------10--------|
E|3------------------|------------------------|3-------------------|------------------------8-7|

  Am7                       D7                    Gm/Bb     Ebmaj7    D7
E|--------5----------------|---------------------|3---3--------------|-------------------|
B|------8---8---------8----|------7-----------7--|3-----3----3--3----|------7-----7--/15\|
G|----5-------5-----5---5--|----5---5-------5---5|3-------3--3----3--|----5---5---5------|
D|--7-------------7-------7|--4-----------4------|-----------5------5|--4---------4------|
A|-------------------------|5-----------5--------|-----------6-------|5-----------5------|
E|5-------------5----------|---------------------|-------------------|-------------------|

Verse 2
  G                      C                                 G                    C
E|----------------------|---------------------------------|---3-5-3-5-3---3-5-3|------------------|
B|---3---------------3--|5--------------------------------|3--3-3-3-3-3---3-3-4|5------8---7-----5|
G|---4----4-5-4------2h4|5------------5/7-5----------5---5|4--4-4-4-4-4---4-4-4|5--------5-5-----5|
D|---5--5-5-5-5-5-------|5------5-7-5-7/9-7--7-5-5---5h7-5|5-------------------|5--5-------5-----5|
A|----------------------|7--5/7------------------5h7------|--------------------|7----7-----7-7-7-7|
E|3---------------3-----|---------------------------------|3-------------------|------------------|

  Am7               D7                   Gm/Bb   Ebmaj7    D7
E|5----5------5----|--------------------|3--3-------------|---------|
B|8--8------8---8--|------7----------7--|3----3--------6-3|------7--|
G|5---------------5|----5---5------5---5|3-----------3----|----5---5|
D|7-------7--------|--4----------4------|----------5------|--4------|
A|-----------------|5----------5--------|--------6--------|5--------|
E|--------5--------|--------------------|-----------------|---------|

Solo
                G                                  C
E|------15~~---|----------------------------15~---|----------------------------|
B|15-17------17|--8-10-8h10~--8-8~~---15-17-----17|8-10-10h12-10h12--8-8-10----|
G|-------------|9---------------------------------|-------------------------9~~|
D|-------------|----------------------------------|----------------------------|
A|-------------|----------------------------------|----------------------------|
E|-------------|----------------------------------|----------------------------|

  G
E|------15-17-15h17-15h17~--15---------------15-17-15h17-15h17-15-------19-15------------------------------|
B|15-17------------------------17-15---15-17----------------------17p15-------17p15-17~~-17p15----15-------|
G|---------------------------------------------------------------------------------------------16----14h16~|
D|---------------------------------------------------------------------------------------------------------|
A|---------------------------------------------------------------------------------------------------------|
E|---------------------------------------------------------------------------------------------------------|

  C                                                      G                       C
E|------------------------------------------------------|--------------x--------|-----------------|
B|--------------10-12-10h12p10-8-10---8---5---3---------|--------------x--------|---------3-------|
G|16p14\12\9-12---------------------9---7---5---2h4/5\4\|--2h4brbr5~~--------2h4|brbr5~~----5-4-2~|
D|------------------------------------------------------|5-----------------5----|-----------------|
A|------------------------------------------------------|-----------------------|-----------------|
E|------------------------------------------------------|-----------------------|-----------------|

  G                        C                                        G 
E|--------------15\-------|----------------------------------------|----------------------------------|
B|--------------15\-------|---------------------------8------8-----|8---7-8-10h12~~-12-10-------------|
G|--2h4brbr5~~------------|-----------------------------7------7---|7---7-----------------12-11h12----|
D|5-----------------------|--------5h7----------5-7/9-----10-----10|9-----9------------------------12~|
A|------------------------|----5h7-----5h7-5h7~--------------------|----------------------------------|
E|---------------------3-3|5/7-------------------------------------|----------------------------------|

  C                                  G
E|----------------------------------|--------------------------------------------|
B|8------------------------------8--|3---------------8---------------------------|
G|7h9~--7p5--------------------5---5|4-------------7---7--7--7---------12--------|
D|----------7/9--9\7p5-------5------|5--------7-10-----10-10-9-x-10-12----10-9--7|
A|---------------------7-5-7--------|----7h10-----------------------------10-10--|
E|----------------------------------|--------------------------------------------|

  C     
E|15---------------------15-------------------------------------------|
B|15h17-15---------------15h17-15-------------------------------------|
G|------14h16--16p14-----------14h16--16p14----17-16p14---------------|
D|-------------------16---------------------16----------17-14----17-14|
A|------------------------------------------------------------17------|
E|--------------------------------------------------------------------|

Verse
  Am7                    D7                   Gm/Bb     Ebmaj7 D7
E|-------5---------5----|--------------------|3--3------------|----|
B|8----8---------8---8--|------7----------7--|3----3----3--3--|----|
G|--5-------5-5--------5|----5---5------5---5|3------3--3--3--|---5|
D|----------------------|--4----------4------|----------5--5--|----|
A|----------------------|5----------5--------|----------6-----|5---|
E|----------------------|--------------------|----------------|----|

Verse 3/outro 
  G                   C                            G              C
E|------------------x|----------------------------|--------------|---------|
B|---3--------------x|5---------------------------|---3----------|5---8---8|
G|---4----4-5-4-----x|5--5/7-------5-5-7----------|---4---4-5-4--|5---5---5|
D|---5--5-5-5-5-5----|5--7/9-7-5---5-7-9-7-5-----5|---5---5-5-5-5|5---5---5|
A|-------------------|7----------7-----------5h7--|--------------|7--------|
E|3------------------|----------------------------|3-------------|---------|

The rest is simply strumming and doing the little figure on the G chord until:

E|------------------------------|
B|---------------------8----8---|
G|-------------------7---9--7---|
D|5---5-7------5-7/9--------10p8|
A|5h7------5-7------------------|
E|------------------------------|

| /  slide up
| \  slide down
| h  hammer-on
| p  pull-off
| ~  vibrato
| +  harmonic
| x  Mute note
Добавлено: 18.10.2017
Другие материалы по этой песне:
  • Аккорды и текст

Страница создана 18.10.2017
http://primanota.ru/john-mayer/gravity-ver-2-live-chords.htm
Привет, Гость.
Предлагаем пройти революционный курс по гитаре.
Подарок от PrimaNota.Ru, забирай!