PrimaNota.ru - самый крупный в мире бесплатный архив песенных текстов, аккордов, табулатур и нот


John Mayer - Friend Of The Devil - таба, видео

Регистрация Запомнить меня
Войти через:  Facebook Google Twitter Vk Yandex Mail.ru

John Mayer - Friend Of The Devil - таба, видео

Печатать
Просмотров: 107
-------------------------------------------------------------------------------
              FRIEND OF THE DEVIL (INSTAGRAM COVER) - JOHN MAYER
-------------------------------------------------------------------------------

Tabbed by: soer9459
E-mail: sorensjust@gmail.com

This tab teaches you the version of Friend of the Devil that John posted on Instagram.
It's really an instrumental cover that sounds pretty cool.

The rhythm is quite intricate, so follow one of these links to get a hang of it:

John Mayer playing:
Part I: https://instagram.com/p/tUsbmmuEd1/ - Part II: https://instagram.com/p/tUsqgHuEeH/

Me playing: https://www.youtube.com/watch?v=TMSVq2QBnGc (Played it right after i tabbed it, so not quite
perfect, but shows quite well how to play it)

Enjoy :)

e|-----------------------------------------------------------------------------|
B|------12-12-12-12--12--12---10h12p10--10--11\10-8---8-8/10\5---5-------10----|
G|------------------------------------12------------------------5-5------11----|
D|-----------------------------------------------------------------------------|
A|---/10------9----------------------------------------------------------------|
E|--------------------12------10-----------8--------7----------5------/10------|

     
e|---------------10-10/12--10-12--------10--------------------------------------------|
B|------12-12-12-----------------10/12-----12\10p8--10/11\10p8---8-8/10\5---5---------|
G|-------------------------------------------------------------------------5---x--x---|
D|------------------------------------------------------------------------7-----------|
A|---/10------9-----------------------------------------------------------------------|
E|-----------------------12-----------10-----------8------------7--------5----7--8----|


e|-----------------------------------10---8--8---7-7-7-7-----------------|
B|--------10--10-10-10--10---10-10h12-----8--8----------10p8-------------|
G|----------------------------------------9--9---------------9-----------|
D|------12--------------12-12-12----------10-10---------------------7----|
A|--------------------12----------------0-0-----0-----0--------0---7-----|
E|----10----10---------------------------------------------------/5------|


e|---------------------------10--8--8---7-7-----------------|
B|-------10-10---10---10---12----8--8-------10p8-----8-8----|
G|-------11-11---11---11---------9--9-----------9----9-9----|
D|-----------------12----12------10-10------------10--------|
A|------------12---------------0-0-----0-0-0-----0----------|
E|----/10---------------------------------------------------|


e|--------------------------14-17\--------------------10---14-17\---|
B|-----------8------7--10---15----------7-8-----------10---15-------|
G|---------7-7------7--11---14----------7-7---9p7-----11---14-------|
D|---------7-9p7-7-7--/12--0------------7-9p7-----9-9/12--0---------|
A|----0-/5-------------------------0-/5-----------------------------|
E|------------------------------------------------------------------|


************************************

| /   slide up
| \   slide down
| h   hammer-on
| p   pull-off
| ~   vibrato
| +   harmonic
| x   Mute note
| b   Bend
| pb  Pre-bend
| br  Bend release
| pbr Pre-bend release
| brb Bend release bend

************************************
Добавлено: 12.09.2015
Другие материалы по этой песне:
  • Аккорды и текст

Страница создана 12.09.2015
http://primanota.ru/john-mayer/friend-of-devil-chords.htm
Привет, Гость.
Предлагаем пройти революционный курс по гитаре.
Подарок от PrimaNota.Ru, забирай!