PrimaNota.ru - самый крупный в мире бесплатный архив песенных текстов, аккордов, табулатур и нот


John Mayer - Free Fallin Live - таба, видео

Регистрация Запомнить меня
Войти через:  Facebook Google Twitter Vk Yandex Mail.ru

John Mayer - Free Fallin Live - таба, видео

Печатать
Просмотров: 104
-------------------------------------------------------------------------------
                             Free Fallin' - John Mayer (originally Tom Petty)
-------------------------------------------------------------------------------
Tabbed by: Stephen K.
Email: rccollector13@gmail.com

Tuning: Standard, Capo 3rd Fret

Note: an x signifies that that string is being slapped. It's a bit tough to tab 
out, easier to watch. I have a youtube tutorial for the song here: 
http://www.youtube.com/watch?v=P7mxcGoHAls

I hope it helps. I'm playing it a little bit differently in the video, but I think 
these tabs are more accurate to what is actually played in the song. Keep in mind 
that there are three guitars in the actual song, so this is my best approximation.

e|---------------------------------------------------------------------------|
B|--3--------3-----3-3--2------2h3--------3p2---0-----0-3---2-----2h3--------|
G|-----2-----0-----0-2--2------2---------2------0-----0-2---2-----2----------|
D|--0---0--------------------2----------0------------------------2-----------|
A|----------------------0---0-------------------------------0---0------------|
E|--------0--3-----3-2----------------3---------3-----3-2--------------------|

e|---------------------------------------------------------------------------|
B|-----3p2----0-------0------0-3----2----2h3-------3p2----0------------------|
G|----2-------0--------------0-2----2-------------2-------0---0---0----------|
D|---0------------x-------0-------------0--------0--------------x------------|
A|----------------------------------0--0-------------------------------------|
E|--2-------3-----------3----3-2---------------2--------3-----------3--------|

e|---------------------------------------------------------------------------|
B|--0--3--2----2h3-----------------------------------------------------------|
G|--0--2--2----2-------------------------------------------------------------|
D|------------0--------------------------------------------------------------|
A|--------0--0---------------------------------------------------------------|
E|--3--2---------------------------------------------------------------------|

e|---------------------------------------------------------------------------|
B|--3--------3---3------3-----3--3-----2------x/3----------------------------|
G|--2--------0-----0----------0--2-----2--2---x------------------------------|
D|------0-x----------x--------------x-------2--------------------------------|
A|----------------------------------x--0------x------------------------------|
E|--2-----x--3-------x-----3--3--2-------------------------------------------|

e|---------------------------------------------------------------------------|
B|--3--------0----------0-----0--3-----2------x/3----------------------------|
G|--2--------0---0------------0--2-----2--2---x------------------------------|
D|------0-x--------0-x--------------x-------2--------------------------------|
A|----------------------------------x--0------x------------------------------|
E|--2-----x--3-------x-----3--3--2-------------------------------------------|

e|-----------3--------3-------3--2-------------------------------------------|
B|--3--------3--3-------------3--3-----2------x/3----------------------------|
G|--2--------0----0-----------0--2-----2--2---x------------------------------|
D|------0-x---------x---------------x-------2--------------------------------|
A|----------------------------------x--0------x------------------------------|
E|--2-----x--3------x------3--3--2-------------------------------------------|

e|---------------------------------------------------------------------------|
B|--------3p2---0-------------0------0--3------2------x/3--------------------|
G|------2-------0----0---------------0--2------2--2---x----------------------|
D|----0----------------0--x----------------x--------2------------------------|
A|-----------------------------------------x---0------x----------------------|
E|--2---------3-----------x------3---3--2------------------------------------|

Bridge

e|---------------------------------------------------------------------------|
B|--3--3--3--3--3--3--3--3--3--3--3--2--2--2--2--0---------------------------|
G|--2--2--2--0--0--0--0--0--2--2--2--2--2--2--2--0---------------------------|
D|---------------------------------------------------------------------------|
A|-----------------------------------0---------------------------------------|
E|--2-----2--3--------------2-----2------------------------------------------|

e|---------------------------------------------------------------------------|
B|--3--3--3--0--0--0--0--0--3--3--3--2--2--2--2--0---------------------------|
G|--2--2--2--0--0--0--0--0--2--2--2--2--2--2--2--0---------------------------|
D|---------------------------------------------------------------------------|
A|-----------------------------------0---------------------------------------|
E|--2-----2--3--------------2-----2------------------------------------------|

************************************

| /   slide up
| \   slide down
| h   hammer-on
| p   pull-off
| ~   vibrato
| +   harmonic
| x   Slap note
| b   Bend
| pb  Pre-bend
| br  Bend release
| pbr Pre-bend release
| brb Bend release bend

************************************
Добавлено: 09.10.2013
Другие материалы по этой песне:
  • Аккорды и текст

Страница создана 09.10.2013
http://primanota.ru/john-mayer/free-fallin-live-chords.htm
Привет, Гость.
Предлагаем пройти революционный курс по гитаре.
Подарок от PrimaNota.Ru, забирай!