PrimaNota.ru - самый крупный в мире бесплатный архив песенных текстов, аккордов, табулатур и нот


John Mayer - Cissy Strut - таба, видео

Регистрация Запомнить меня
Войти через:  Facebook Google Twitter Vk Yandex Mail.ru

John Mayer - Cissy Strut - таба, видео

Печатать
Просмотров: 208
I attempted to tab out Cissy Strut from the ReAct performance. If u can help me tab the
rest of the song that would be appreciated, but this is the main theme of it

Standard Tunning:


e:-------------------------------------| 
B:-------------------------------------| 
G:-------------------------------------| 
D:--10p8-------------------------------| 
A:--------10---------------------------| 
E--------------11b----8/----8—-6-8-6-8/| 

e:-------------------| 
B:--11--11---10—-10--| 
G:--10--10---10—-10--| 
D:--9----9----9--9---| x 4 
A:--10--10---10--10--| 
E:-------------------| 

e:--------------------------------------| 
B:--------------------------------------| 
G:--------------------------------------| 
D:--10--8-10-8-10—8----10--8-10-8-------| x 4 
A:--------------------------------10----| 
E:-----------------------------------8--| 
Добавлено: 05.06.2012
Другие материалы по этой песне:

Страница создана 14.04.2012
http://primanota.ru/john-mayer/cissy-strut-chords.htm
Привет, Гость.
Предлагаем пройти революционный курс по гитаре.
Подарок от PrimaNota.Ru, забирай!