PrimaNota.ru - самый крупный в мире бесплатный архив песенных текстов, аккордов, табулатур и нот


John Mayalls Bluesbreakers - Im Your Witchdoctor - таба, видео

Регистрация Запомнить меня
Войти через:  Facebook Google Twitter Vk Yandex Mail.ru

John Mayalls Bluesbreakers - Im Your Witchdoctor - таба, видео

Печатать
Просмотров: 73
Авторы музыки: John Mayall
Авторы текста: John Mayall
John Mayall's Bluesbreakers and Eric Clapton - I'm Your Witchdoctor



|------------|--------------------|--------------|---------------------|
|------------|--------------------|--------------|---------------------|
|--------5-7-|-7fb-7fbp5------5-7-|----------5-7-|-7fb-7fbp5-------5-7-|
|------7-----|-----------7--7-----|-7-7-7--7-----|-----------7---7-----|
|------------|--------------------|--------------|---------------------|
|------------|--------------------|--------------|---------------------|



|-------------|----------------------|---------------------|--------------------|
|-------------|----------------------|---------------------|--------------------|
|---------5-7-|-5/7-5/7-5/7----7p5-7-|-5/7-5/7-5/7-----5-7-|-7fb-7fbp5------5-7-|
|7-7-7--7-----|--------------7-------|---------------7-----|-----------7--7-----|
|-------------|----------------------|---------------------|--------------------|
|-------------|----------------------|---------------------|--------------------|


                                           (your witch dr)
|----------------|-------------------------|----|----|----|--------------------|
|----------------|---8---8----8----6---6---|----|----|----|-10fb~-10fb~-10fbp8-|
|------------5-7-|-9---9---9-----7---7---7-|----|----|----|--------------------|
|-7-7-7----7-----|-------------------------|----|----|----|--------------------|
|----------------|-------------------------|----|----|----|--------------------|
|----------------|-------------------------|----|----|----|--------------------|



|--------------------|--------------|---------------------|-------------|
|--------------------|--------------|---------------------|-------------|
|-7fb-7fbp5------5-7-|----------5-7-|-7fb-7fbp5-------5-7-|---------5-7-|
|-----------7--7-----|-7-7-7--7-----|-----------7---7-----|7-7-7--7-----|
|--------------------|--------------|---------------------|-------------|
|--------------------|--------------|---------------------|-------------|



|----------------------|---------------------|--------------------|----------------|
|----------------------|---------------------|--------------------|----------------|
|-5/7-5/7-5/7----7p5-7-|-5/7-5/7-5/7-----5-7-|-7fb-7fbp5------5-7-|------------5-7-|
|--------------7-------|---------------7-----|-----------7--7-----|-7-7-7----7-----|
|----------------------|---------------------|--------------------|----------------|
|----------------------|---------------------|--------------------|----------------|


                           (your witch dr)
|-------------------------|----|----|----|--------------------|
|---8---8----8----6---6---|----|----|----|-10fb~-10fb~-10fbp8-|
|-9---9---9-----7---7---7-|----|----|----|--------------------|
|-------------------------|----|----|----|--------------------|
|-------------------------|----|----|----|--------------------|
|-------------------------|----|----|----|--------------------|



|-------|-----------|-----------|-----------|-----------|-----------|---------------------|
|--10bf-|-10bfr10bf-|-10bfr10bf-|-10bfr10bf-|-10bfr10bf-|-10bfr10bf-|-10bfr10bf----10p8h10|
|-------|-----------|-----------|-----------|-----------|-----------|---------------------|
|-------|-----------|-----------|-----------|-----------|-----------|---------------------|
|-------|-----------|-----------|-----------|-----------|-----------|---------------------|
|-------|-----------|-----------|-----------|-----------|-----------|---------------------|



|------------|--------------------|--------------|---------------------|
|-8----------|--------------------|--------------|---------------------|
|--------5-7-|-7fb-7fbp5------5-7-|----------5-7-|-7fb-7fbp5-------5-7-|
|------7-----|-----------7--7-----|-7-7-7--7-----|-----------7---7-----|
|------------|--------------------|--------------|---------------------|
|------------|--------------------|--------------|---------------------|



|-------------|----------------------|---------------------|--------------------|
|-------------|----------------------|---------------------|--------------------|
|---------5-7-|-5/7-5/7-5/7----7p5-7-|-5/7-5/7-5/7-----5-7-|-7fb-7fbp5------5-7-|
|7-7-7--7-----|--------------7-------|---------------7-----|-----------7--7-----|
|-------------|----------------------|---------------------|--------------------|
|-------------|----------------------|---------------------|--------------------|


                                           
|----------------|-------------------------|
|----------------|---8---8----8----6---6---|
|------------5-7-|-9---9---9-----7---7---7-|  5 bar rest - (i'm your Witchdoctor)
|-7-7-7----7-----|-------------------------|
|----------------|-------------------------|
|----------------|-------------------------|



Ending

|----------------------|----------------------|----------------------|----------------------|
|----------------------|----------------------|----------------------|-10b-10b-10b-10b-10b--|
|---5-7-7fb--5---5-----|---5-7-7fb--5---5-----|----------------------|-12b-12b-12b-12b-12b--|
|-7------------7---7-7-|-7------------7---7-7-|----------------------|----------------------|
|----------------------|----------------------|----------------------|----------------------|
|----------------------|----------------------|----------------------|----------------------|



|----------------------|----------------------|----------------------|----------------------|
|----------------------|----------------------|----------------------|-8--------------------|
|----------------------|----------------------|----------------------|----------------------|
|----------------------|----------------------|----------------------|----------------------|
|----------------------|----------------------|----------------------|----------------------|
|----------------------|----------------------|----------------------|----------------------|
Добавлено: 23.07.2013
Другие материалы по этой песне:
  • Аккорды и текст

Страница создана 23.07.2013
http://primanota.ru/john-mayalls-bluesbreakers/im-your-witchdoctor-chords.htm
Привет, Гость.
Предлагаем пройти революционный курс по гитаре.
Подарок от PrimaNota.Ru, забирай!