PrimaNota.ru - самый крупный в мире бесплатный архив песенных текстов, аккордов, табулатур и нот


John Mayalls Bluesbreakers - Have You Heard - таба, видео

Регистрация Запомнить меня
Войти через:  Facebook Google Twitter Vk Yandex Mail.ru

John Mayalls Bluesbreakers - Have You Heard - таба, видео

Печатать
Просмотров: 66
Авторы музыки: John Mayall

-------------------------------------------------------------------------------
         HAVE YOU HEARD – John Mayall's Bluesbreakers with Eric Clapton
                                 (John Mayall)
-------------------------------------------------------------------------------

Tabbed by: varannion
Email:     dm_hughes1@hotmail.com

Tuning: standard

Intro (sax solo)

      slow
      C                        F
e|--------------------------|--------------------------|
B|--------------------------|--------------------------|
G|----8b9-(9)--(9)----8h10--|--------------------------|
D|--------------------------|--------------------8h10--|
A|--------------------------|--8----(8)---(8)----------|
E|--------------------------|--------------------------|


      slow ~~~~~~~           bss                        ~~~
      C
e|-------------------------------|-------------------------|
B|-------------------------------|-------------------------|
G|----8b9-(9)--(9)---------------|------------------10/12--|
D|-------------------------------|--8/10-------------------|
A|-----------------10\8-(8)-6----|-------------------------|
E|----------------------------8--|-------------------------|


      ~~~          ~~~
      F
e|------------------------------------|-------------------------|
B|------------10/11--(11)-------------|-------------------------|
G|----(12)----------------10-8--(8)---|-------------------------|
D|------------------------------------|----8/10---(10)----------|
A|------------------------------------|-------------------6/8---|
E|------------------------------------|-------------------------|



      C
e|-------------------------|-------------------------|
B|--------------6/8--------|------------11/13--(13)--|
G|--------------7/9--(9)---|--\7---------------------|
D|--------------8/10-(10)--|--\8---------------------|
A|----/7-------------------|-------------------------|
E|-------------------------|-------------------------|


                                   mu
      G
e|----------------------------------------------|
B|----------------------------------------------|
G|----10/12----(12)---(12)\--------x\--8h10-10--|
D|---------------------------------x\-----------|
A|----------------------------------------------|
E|----------------------------------------------|


                                      ~~~~~       bss   co
      F
e|------------------------------------------------------------|
B|------------------------------------------------------------|
G|----10-10-10-10-10p8------------8--10--(10)----8------------|
D|----------------------------10--------------------10--------|
A|-----------------------------------------------------10--8--|
E|------------------------------------------------------------|


      bss
      C                   F
e|-------------------------------------------------|
B|-------------------------------------------------|
G|----8--------------------------------------------|
D|------10-(10)------------------------------------|
A|---------------------10-9-10-9-10-9-8-6h8-6-(6)--|
E|-------------------------------------------------|



      C                         G
e|-------------------------------------------------------|
B|-------------------11p8----8-(8)-----------------------|
G|----8-10p8--------------10----------10-8h9-------------|
D|----x------10------------------------------10----8-----|
A|----------------------------------------------10---10--|
E|-------------------------------------------------------|

Verse 1

      trill                                     bss co
      C                            F                      C
e|-------------------8/11-(11)--|--(11)--(11)-8-11--8--|-----------------------------|
B|------------------------------|----------------------|------------------6/8-(8)----|
G|----8h9-----------------------|----------------------|-----------------------------|
D|------------------------------|----------------------|-----------------------------|
A|------------------------------|----------------------|-----------------------------|
E|------------------------------|----------------------|-----------------------------|


                              ~~~

e|---------------------11/13-12--------------------------|
B|----8/11----11/13----------------13----13-13-13-13-13--|
G|------------------------------------14-----------------|
D|-------------------------------------------------------|
A|-------------------------------------------------------|
E|-------------------------------------------------------|


              bss co 
      F
e|-----------------------------------------------------|
B|----13-13-15b16----------------15b16----13-15-13-15--|
G|-------------------------------------14--------------|
D|-----------------------------------------------------|
A|-----------------------------------------------------|
E|-----------------------------------------------------|


                                  ~~~ co

e|-----------------------------------------------------|
B|----13-15-13-15-13----15b16----13--15----------------|
G|-------------------14-------14-------------------10--|
D|-----------------------------------------------------|
A|-----------------------------------------------------|
E|-----------------------------------------------------|

     wide vib
      ~~~~~    bss co  bss  bss  bss  bss  bss  bss  bss  bss
      C
e|------------------------------------------------------------------------------|
B|------------------------------------------------------------11----------------|
G|----8--------8--10--8-10-8-10-8-10-8-10-8-10-8-10-8-10-8-10----10b12r10p8-----|
D|--------------------------------------------------------------------------10--|
A|------------------------------------------------------------------------------|
E|------------------------------------------------------------------------------|


            bss                                    bss                     bss

e|-------------------------------------------------------10b11r10-8-----------|
B|------------------------------------------------------------------8----8----|
G|----10----8------------------------------8-10-8-(8)-----------------10---8--|
D|-------10---10------------------8/10--10------------------------------------|
A|---------------10\8-6---6h8p6-----------------------------------------------|
E|----------------------8-------8---------------------------------------------|


                mu mu              ~~~
      G                  F
e|--------------------|----------------------------------------|
B|--------------------|---------------------------------11h13--|
G|--------------------|--/8----8/10-(10)----10/12--(12)--------|
D|--------------x/x\--|----------------------------------------|
A|----10--------x/x\--|----------------------------------------|
E|--------------------|----------------------------------------|


          bss  [catch B string]
      C                     F
e|-------11--------11b13-11p8--------------------------------------8--|
B|----13----------------------8----------------------------------8----|
G|------------------------------10b12r10p8-10p8----10----8-10b12------|
D|----------------------------------------------10----10--------------|
A|--------------------------------------------------------------------|
E|--------------------------------------------------------------------|

                                                           Verse 2

                                co     co   ~~~~~~            ~~~ bss          mu
      C                                    G                 C
e|--------------------------------------------------------|------10------------------|
B|----11p8----8-------------------------------------------|--------------------------|
G|---------10---10p8----10----8h9----8h9------------------|--13----------------------|
D|-------------------10----10-----------------------------|--x----------------x\-----|
A|----------------------------------------10----(10)------|--x----------------x\-----|
E|--------------------------------------------------------|--------------------------|


         ~~~~~           slow                       co        ~~~~         co     ~~~
      F                                C
e|----------------------------------|--------13b15----------------------------13b15--|
B|----------------------------------|---------------------13-13--------13-13---------|
G|----------------------8b10--------|------------------------------------------------|
D|----------------------------------|------------------------------------------------|
A|----6h8----(8)--------------------|------------------------------------------------|
E|----------------------------------|------------------------------------------------|


                       |------ gradual bend up rpb ------|  co

e|----(15)--------13-13-(14)-(14)-(15)-(15)-(15)-(14)-(15)-13--11-------11h13----
B|----------------------------------------------------------------13-13----------
G|-------------------------------------------------------------------------------
D|-------------------------------------------------------------------------------
A|-------------------------------------------------------------------------------
E|-------------------------------------------------------------------------------


     pb
                         F
  --(13)15r13p11h13p11-|-h13p11h13p11h13p11h13p11h13p11h13p11h13p11\-----------------|
  ---------------------|-------------------------------------------------------------|
  ---------------------|-------------------------------------------------------------|
  ---------------------|-------------------------------------------------------------|
  ---------------------|-------------------------------------------------------------|
  ---------------------|-------------------------------------------------------------|


        ~~~   ~~~                                    bss
                                             C
e|----------------------------------------|-----------------11b13-13r11p8------
B|----------------------------------------|-------------------------------8----
G|----/8---8/10----8b10r8-----------------|------------------------------------
D|----------------------------------------|------------------------------------
A|---------------------------6h8-6h8------|--6h8p6h8p6-------------------------
E|----------------------------------------|------------------------------------




  --------8---------------|
  --11b13-----------------|
  ----------10b12r10p8----|
  ---------------------10-|
  ------------------------|
  ------------------------|


                            bss                                bss

e|----------------------------------------------------------------------------|
B|------------------------8----10b11-(11)r10b11r10-8----8-------------8b10r8--|
G|----8h10-(10)p8----8h10---8------------------------10---8h10p8--------------|
D|----------------10----------------------------------------------------------|
A|----------------------------------------------------------------------------|
E|----------------------------------------------------------------------------|


       ~~~~~~~~~            mu                                                 bss
      G                              F
e|--------------------------------|-----------------------------------------------|
B|--------------------------------|-----------------------------------------------|
G|--------------------------------|------------------------------8-10-10b12r10-8--|
D|--------------------------x\----|-----------------------------------------------|
A|----10------(10)----------x\----|--8b10r8----8----------------------------------|
E|--------------------------------|-----------------6h8---------------------------|


                                 ~~~~~
      C                    F
e|-------------------8-10b11------------------11b13-11-8----|
B|--------------8-10------------10----(10)---------------8--|
G|----------------------------------------------------------|
D|----10----------------------------------------------------|
A|----------------------------------------------------------|
E|----------------------------------------------------------|


              ~~~~~~~           ~~~     ~~~
      C                        G
e|-----------------------------------------------------|
B|-------8-----------------------------13------13--13--|
G|----10---8h9-(9)---(9)-------------------------------|
D|-----------------------------------------------------|
A|----------------------------/10----------------------|
E|-----------------------------------------------------|

Solo

       bss     bss                                       bss   co    co
      C
e|----11------11-------------13b15----13b15r13p11-------11--------------|
B|--------13--------13-13-13----------------------13-13-------13----13--|
G|----------------------------------------------------------------------|
D|----------------------------------------------------------------------|
A|----------------------------------------------------------------------|
E|----------------------------------------------------------------------|


                            co
      F
e|----13b15-13-11----11-13-11-13------------11\----
B|----------------13-------------13-13-(13)--------
G|-------------------------------------------------
D|-------------------------------------------------
A|-------------------------------------------------
E|-------------------------------------------------


           co

  -----18b20-18p15--------------------------------------|
  -----------------18p16h18p16h18p16h18p16h18p16h18p16--|
  ------------------------------------------------------|
  ------------------------------------------------------|
  ------------------------------------------------------|
  ------------------------------------------------------|


             co  ppb
      C
e|----------18-----------------------------------------------------------
B|----18b20----(20)r18-18-18----16-18b20r18-16--------16-18-16-17(17)p0--
G|---------------------------17----------------17-17---------------------
D|-----------------------------------------------------------------------
A|-----------------------------------------------------------------------
E|-----------------------------------------------------------------------


      pb                            co

  ---------------------------------8-----------------|
  -------------------------------8---11p8-11p8-11p8--|
  --(10)12r10-8----10----8-10b12---------------------|
  --------------10----10-----------------------------|
  ---------------------------------------------------|
  ---------------------------------------------------|


                                                               co   pb

e|---------------------------------11b13-11-8----------------------------------------
B|----11p8-11p8-11p8-11p8-11p8-11p------------11p8-----------------------------------
G|-------------------------------------------------10b12-8----8----(10)12r10p8h10p8--
D|---------------------------------------------------------10---10-------------------
A|-----------------------------------------------------------------------------------
E|-----------------------------------------------------------------------------------


          slow            ~~~~~~                                             bss
                        F
  -------------------|---------------------------------------------------------------|
  -------------------|---------------------------------------------------------------|
  --12b14----r12--8--|--h10----p8--------------------------------------8h10p8--------|
  -------------------|------------10-------------8h10-10-10-10-10-8h10---------------|
  -------------------|---------------6h8-6h8-6h8-------------------------------------|
  -------------------|---------------------------------------------------------------|


         ~~~bssco ~~~bss                                 co

e|----------11----------11----11-13b15r13p11----13----11h13----13b15-13-11-13-11-----|
B|------13--------13-13----13----------------13----13-------------------11-------13--|
G|-----------------------------------------------------------------------------------|
D|-----------------------------------------------------------------------------------|
A|-----------------------------------------------------------------------------------|
E|-----------------------------------------------------------------------------------|


       ~~~
      C
e|--------11\--------------------------------8----------------------------
B|----13-----------------------------------8---11p8-11p8-11p8-11p8-11b13--
G|-------------10b12-10p8----10----8-10b12--------------------------------
D|------------------------10----10----------------------------------------
A|------------------------------------------------------------------------
E|------------------------------------------------------------------------


                                     bss

  --8-----------------------------------|
  ----11p8------------------------------|
  ---------10b12r10p8-10----8h10-8-(8)--|
  -----------------------10-------------|
  --------------------------------------|
  --------------------------------------|


             ~~~   pb  ~~~~~~~~

e|-----------------------------------------------------10b12----|
B|---------------(10)11------(11)----10-8----8------------------|
G|--------8h9-----------------------------10---8h10-------------|
D|----10--------------------------------------------------------|
A|--------------------------------------------------------------|
E|--------------------------------------------------------------|


                                 bss
      G
e|----8----10b12-(12)-8---11b13-11-8-------------------------------------------------
B|------8---------------8------------11-8--------------------------------------------
G|----------------------------------------10b12-10p8----10-----10b12r10p8------------
D|---------------------------------------------------10----10------------------------
A|------------------------------------------------------------------------10-(10)----
E|-----------------------------------------------------------------------------------


                   slow      mu     ~~~                  bss         pb
              F
  ---------|--15b17----r15--(12)------------15b18-15-13------------------------------|
  -----13--|-----------------------13-13-13-------------16-13-15----(15)16r15p13-----|
  ---------|-----------------------------------------------------14--------------14--|
  ---------|-------------------------------------------------------------------------|
  ---------|-------------------------------------------------------------------------|
  ---------|-------------------------------------------------------------------------|


          ~~~~~      bss pb    bss pb    bss pb    bss pb           ~~~~~
      C                                                         F
e|-----------------------------------------------------------------------------
B|----13-13----(13)--16-(16)18-16-(16)18-16-(16)18-16-(16)18-16b18r16----(16)--
G|-----------------------------------------------------------------------------
D|-----------------------------------------------------------------------------
A|-----------------------------------------------------------------------------
E|-----------------------------------------------------------------------------


                          ~~~~  co              ~~~                 ~~~     bss co co
                                      C                            G
  ---------------------------------|--------15---------------------------------------|
  --13----15b17r15p13----13----15--|--15b17----13------11p8-11---8-------------------|
  -----14-------------14-----------|---------------------------9---8-----------------|
  ---------------------------------|-------------------------------------------------|
  ---------------------------------|-----------------------------------10p8-6--------|
  ---------------------------------|-------------------------------------------8--8--|

Verse 3

            bss       slow                ~~~~~~~~     mu
      C                            F
e|------------------------------|---------------------------------------|
B|------------------------------|---------------------------------------|
G|---------8----------8b10------|--8b10--8------(8)---------------------|
D|----8/10----------------------|----------------------x----------------|
A|------------------------------|----------------------x----------------|
E|------------------------------|---------------------------------------|


               ~~~~~~
      C
e|--------13b15------(15)------(15)----------|
B|-------------------------------------------|
G|-------------------------------------------|
D|-------------------------------------------|
A|-------------------------------------------|
E|-------------------------------------------|


       pb  ~~~         rpb              bss       slow

e|----(13)15--(15)----(15)r13p11-------11------------------------------------|
B|-------------------------------13-13-----------15b17-----------------------|
G|---------------------------------------------------------------------------|
D|---------------------------------------------------------------------------|
A|---------------------------------------------------------------------------|
E|---------------------------------------------------------------------------|


       co     ~~~~~~~~             pb                ~~~
      F
e|----15---------------------15-------------------------|
B|-------13--13------(13)--------(15)16r15p13-15----13--|
G|-----------------------------------------------14-----|
D|------------------------------------------------------|
A|------------------------------------------------------|
E|------------------------------------------------------|


         ~~~     co               bss            ~~~      ~~~
                                       C
e|----------------------------------|--------------------------------------|
B|----(13)h15b17--------------------|--------8/11----11/13----13/16----18--|
G|----------------------------10p8--|--------------------------------------|
D|----------------------------------|--10----------------------------------|
A|----------------------------------|--------------------------------------|
E|----------------------------------|--------------------------------------|


                       co             ~~~ co         bss

e|-----------------13b15-13p11-----------11------------|
B|----15b17--------------------13p11-13-----------8----|
G|------------------------------------------8h10----8--|
D|-----------------------------------------------------|
A|-----------------------------------------------------|
E|-----------------------------------------------------|


                tremolo pick       co
      G9                           F9
e|------------10---(10)--(10)\--|--8--------------------|
B|------------10---(10)--(10)\--|--8--------------------|
G|------------10---(10)--(10)\--|--8--------------------|
D|------------------------------|-----------------------|
A|----10------------------------|-----------------------|
E|-----------------------------|------------------------|

                                                             bss
         co   co      ~~~~~                      co       co ~~~
        C    C/E     F             F#dim                  C/G  C#9  C9
e|-----------8-10b11------------8-10b11r10p8----8--|--11b13-11-----------------|
B|------8-10---------10----(10)--------------10----|---------------------------|
G|-------------------------------------------------|------------8--------------|
D|-------------------------------------------------|---------------8--(8)------|
A|-------------------------------------------------|---------------------------|
E|-------------------------------------------------|---------------------------|




e|------------------------|
B|----8\------------------|
G|----8\------------------|
D|------------------------|
A|------------------------|
E|------------------------|



Intro (sax solo)

C       F       C       C

F       F       C       C

G       F       C   F   C   G


Verse 1

C
Have you heard about my baby?
F                             C       C
Yes, how I love her you don't know
F                                F
Have you heard about my baby?
                                         C       C
How I love her, how I love her you don't know
G                              F
I declare it hurt me so bad
            C                        F
Yes, when I heard she'd got to go
C       G


Verse 2

C
Have you heard about my baby?
F                                              C       C
Yes, I tried, yes, I tried, but I let her down
F                                F
Have you heard about my baby?
                   C                     C
Ooh, yes, I tried, an' I let her down 
G                                   F
Ooh, she burned me with her love
                                    C        F
Yes, no other, no other'll wear her crown
C       G


Solo

C       F       C       C

F       F       C       C

G       F       C   F   C   G


Verse 3

C
Have you heard about my baby?
F                                                         C       C
Where's she gone, where's she gone, I just don't kmow?
     F                                F
Yes, have you heard about my baby?
                                         C                     C
Ooh, where's she gone, where's she gone, I just don't kmow?
G9                                 F9
Well, if you should see my baby
                                           C    C/E    F    
Yes, please tell her that I love her so
F#dim C/G    C#9      C9
Yes, no more next time




/    slide up
\    slide down
h    hammer-on
p    pull-off
b    bend up
r    release bend
mu   mute
pb   pre-bend
co   cut off
bss  bend slightly sharp
rpb  re-pick bend
~~   vibrato


======================================================================  11 April 2010

Добавлено: 29.06.2013
Другие материалы по этой песне:
  • Аккорды и текст

Страница создана 29.06.2013
http://primanota.ru/john-mayalls-bluesbreakers/have-you-heard-chords.htm
Привет, Гость.
Предлагаем пройти революционный курс по гитаре.
Подарок от PrimaNota.Ru, забирай!