PrimaNota.ru - самый крупный в мире бесплатный архив песенных текстов, аккордов, табулатур и нот


John Mayall - Fan The Flames - таба, видео

Регистрация Запомнить меня
Войти через:  Facebook Google Twitter Vk Yandex Mail.ru

John Mayall - Fan The Flames - таба, видео

Печатать
Просмотров: 160
Уроки эстрадного вокала в Санкт-Петербурге
Artist: John Mayall And The Bluesbreakers
Album: Spinning Coin
Song: Fan The Flames
Tabed For Tune: E
Tabed By Janne Tschokkinen
E-Mail: janne.tschokkinen@kolumbus.fi
Site: http://www.kolumbus.fi/janne.tschokkinen

!!!These tabs were created without any kinds of money making 
purposes and are to be used only for educational purposes!!!

!!!C not re-publish this tab without permission!!!
--------------------------------------------------------------

This is the basic rhythm for all the chords...errr blues. ->
E|---------------------|
H|---------------------|
G|---------------------|
D|---------------------|
A|-8-8-10-8--8-8-10-8--|
E|-6-6-6--6--6-6-6--6--|


Intro: w/Fig.1
| Bb | Bb | Eb | Bb | F | Eb | Bb | Bb |

Verse: 1-3
|: Bb | Bb | Eb | Bb | F | Eb | Bb | Bb :|X3

Solo:
| Eb | Bb | F | Eb | Bb | Bb | F | Eb | Bb | Bb |
| Bb | Bb | Eb | Bb | F | Eb | Bb | Bb |

Verse: 4-6
|: Bb | Bb | Eb | Bb | F | Eb | Bb | Bb :|X3

Solo:
| Bb | Bb | Eb | Bb | F | Eb | Bb | Bb |

Outro:
|: F | Eb | Bb | Bb :|X2


  Fig.1
E|----------------------------------------|----------|
H|-11-11-11-11-11-11-11-11-11-11-11-11-11-|-11--8----|
G|.10-10-10-10-10-10-10-10-8--10-10-8--10.|-10--8----|
D|.--------------------------------------.|----------|
A|----------------------------------------|----------|
E|----------------------------------------|----------|

E|----------------------------------------|-----13---13-10-|
H|-11-11-11-11-11-11-11-11-11-11-11-11-11-|-11--10---10-8--|
G|-10-10-10-10-10-10-10-10-8--10-10-8--10-|-10--10---10-8--|
D|----------------------------------------|----------------|
A|----------------------------------------|----------------|
E|----------------------------------------|----------------|

E|----------------------------------------|
H|-11-11-11-11-11-11-11-11-11-11-11-11-11-|
G|-10-10-10-10-10-10-10-10-8--10-10-8--10-|End Fig.1
D|----------------------------------------|
A|----------------------------------------|
E|----------------------------------------|

     
Добавлено: 20.07.2013
Другие материалы по этой песне:
  • Аккорды и текст

Страница создана 20.07.2013
http://primanota.ru/john-mayall/fan-the-flames-chords.htm
Привет, Гость.
Предлагаем пройти революционный курс по гитаре.
Подарок от PrimaNota.Ru, забирай!