PrimaNota.ru - самый крупный в мире бесплатный архив песенных текстов, аккордов, табулатур и нот


John Mayall - All Your Loving - бас-таба, видео

Регистрация Запомнить меня
Войти через:  Facebook Google Twitter Vk Yandex Mail.ru

John Mayall - All Your Loving - бас-таба, видео

Печатать
Просмотров: 118
Уроки эстрадного вокала в Санкт-Петербурге
All Your Loving.btab
John Mayall
TablEdited by Poppamies
Tuning : E A D G 	Time Signature: 4/4

 tempo 108       |       |        |       |       |       |        
|--------------------------------|2-----------------------0---2---|
|--------------------------------|------------2-------------------|
|--------------------------------|--------------------------------|
|--------------------------------|--------------------------------|

 |       |       |       |        |       |       |       |        
|2-----------2-----------0-------|2-----------2---2-------0-------|
|----------------------------2---|--------------------2-------2---|
|--------------------------------|--------------------------------|
|--------------------------------|--------------------------------|

 |       |       |       |        |       |       |       |        
|------------------------0-------|----------------------------2---|
|7-----------2---2---2-------2---|0-----------3---3---3---0-------|
|--------------------------------|--------------------------------|
|--------------------------------|--------------------------------|

 |       |       |       |        |       |       |       |        
|------------------------0---2---|2-----------------------0---2---|
|0-----------3---3---2-----------|------------2---2---2-----------|
|--------------------------------|--------------------------------|
|--------------------------------|--------------------------------|

 |       |       |       |        |       |       |       |        
|2-----------------------0---2---|------------------------0-------|
|------------2---2---2-----------|2-----------2---2---2-------2---|
|--------------------------------|--------------------------------|
|--------------------------------|--------------------------------|

 |       |       |       |        |       |       |       |        
|----------------------------0---|2-------2---5-------2-----0-2---|
|0-------0---3-------0---2-------|------------------------2-------|
|--------------------------------|--------------------------------|
|--------------------------------|--------------------------------|

 |       All the loving is        loving...       |       |        
|2-------------------------------|2-----------0-------2---5---0---|
|--------------------------------|--------2-----------------------|
|--------------------------------|--------------------------------|
|--------------------------------|--------------------------------|

 |   All the kissing is  |        kissing...      |       |        
|2-----------------------0-------|2-------2-------------------2---|
|------------2-------2-------2---|------------2-------2---0-------|
|--------------------------------|--------------------------------|
|--------------------------------|--------------------------------|

 |       |       |       |        |       |       |       |        
|2-------2---------------0-------|--------------------------------|
|------------2-------2-------2---|0-------0---3-------3---0-------|
|--------------------------------|----------------------------3---|
|--------------------------------|--------------------------------|

 |       |       |       |        |       |       |       |        
|------------------------0---2---|2-----------------------0---2---|
|0-------0---3-------0-----------|------------2-------2-----------|
|--------------------------------|--------------------------------|
|--------------------------------|--------------------------------|

 |   before I met|you    |        baby... |       |       |        
|2---2-------0-----------2-------|------------------------0-------|
|--------2-----------2-------0---|2-----------2---2---2-------2---|
|--------------------------------|--------------------------------|
|--------------------------------|--------------------------------|

 |       |       |       |        |       |       |       |        
|------------7-------7---0---1---|2-------2---0-------0-----------|
|0-------0-----------------------|------------------------2-------|
|--------------------------------|----------------------------3---|
|--------------------------------|--------------------------------|

 |   All your love pretty|        baby... |       |       |        
|2-------------------------------|2-----------------------0---2---|
|--------------------------------|--------2---2-------2-----------|
|--------------------------------|--------------------------------|
|--------------------------------|--------------------------------|

 |       |       |       |        |       |       |       |        
|2-----------------------0-------|2-----------------------0-------|
|------------2-------2-------2---|------------2-------2-------2---|
|--------------------------------|--------------------------------|
|--------------------------------|--------------------------------|

 |       All your|love pretty     baby... |       |       |        
|2-----------2-----------0-------|------------2-------2---2-------|
|------------------2-2-------2---|0-------------------------------|
|--------------------------------|----------------------------3---|
|--------------------------------|--------------------------------|

 |       |       |       |        |       |       |       |        
|------------------------0---2---|2-----------------------0-------|
|0-------0---3-------0/2---------|------------2-------2-------2---|
|--------------------------------|--------------------------------|
|--------------------------------|--------------------------------|

 |       |       |       |        |       |       |       |        
|2-------------------------------|------------------------4-------|
|------------2-------2-------0---|2-----------2-------2-------2---|
|------------------------4-------|--------2-----------------------|
|--------------------------------|--------------------------------|

 |       |       |       |        |       |       |       |        
|------------7-------7---5-2-----|2-----------0-------------------|
|0-------0-------------------0---|--------------------2-----------|
|--------------------------------|------------------------3-------|
|--------------------------------|--------------------------------|

 G U I T A  R   S|O L O  |        |       |       |       |        
|--------------------------------|2-----------------------0-------|
|--------------------------------|------------2-------2-------2---|
|0-------------------------------|--------------------------------|
|--------------------------------|--------------------------------|

 |       |       |       |        |       |       |       |        
|2-----------2-----------0-------|2-------2---------------0/2-5---|
|--------------------2-------2---|------------2-------2-----------|
|--------------------------------|--------------------------------|
|--------------------------------|--------------------------------|

 |       |       |       |        |       |       |       |        
|2-------2---0-------0-----------|--------------------------------|
|------------------------2-------|0-----------3-------3---0-------|
|----------------------------0-0-|----------------------------3---|
|--------------------------------|--------------------------------|

 |       |       |       |        |       |       |       |        
|------------------------0---2---|2-----------------------2---5---|
|0-----------3-------0/2---------|------------2-------2-----------|
|--------------------------------|--------------------------------|
|--------------------------------|--------------------------------|

 |       |       |       |        |       |       |       |        
|2-------2---0-------0-----------|------------------------0-------|
|------------------------2---0---|2-----------2-------2-------2---|
|--------------------------------|--------2-----------------------|
|--------------------------------|--------------------------------|

 |       |       |       |        |       |       |       |        
|------------2-------2---0-------|--------------------0-----------|
|0-------0-------------------2---|------------2-----------2-------|
|--------------------------------|0---------------------------3---|
|--------------------------------|--------------------------------|

 |       |       |       |        |       |       |       |        
|--------------------------------|2-----2-2-----2-2-----2-2-----2-|
|--------------------------------|--------------------------------|
|0-------------------------------|--------------------------------|
|--------------------------------|--------------------------------|

 |       |       |       |        |       |       |       |        
|2-----2-2-----2-2-----2-2-----2-|2-----2-2-----2-2-----2-2-----2-|
|--------------------------------|--------------------------------|
|--------------------------------|--------------------------------|
|--------------------------------|--------------------------------|

 |       |       |       |        |       |       |       |        
|2-----2-2-----2-2-----2-2-2-2---|--------------------------------|
|--------------------------------|0-----0-0-----0-0-----0-0-----0-|
|--------------------------------|--------------------------------|
|--------------------------------|--------------------------------|

 |       |       |       |        |       |       |       |        
|--------------------------0-1---|2-----2-2-----2-2-----2-2-----2-|
|0-----0-0-----0-0-----0-4-------|--------------------------------|
|--------------------------------|--------------------------------|
|--------------------------------|--------------------------------|

 |       |       |       |        |       |       |       |        
|2-----2-2-----2-2-----2-2-------|--------------------------------|
|------------------------------0-|2-----2-2-----2-2-----2-2-----1-|
|--------------------------------|--------------------------------|
|--------------------------------|--------------------------------|

 |       |       |       |        |       |       |       |        
|----------------7-----7-5-----5-|2-----2-0-----0-----------------|
|0-----0-0-----0-----------------|----------------2-----2-0-------|
|--------------------------------|------------------------------3-|
|--------------------------------|--------------------------------|

 |       |       |       |        |       |       |       |        
|--------------------------------|2-----2-2-----2-2-----2-2-----2-|
|--------------------------------|--------------------------------|
|0-------------------------------|--------------------------------|
|--------------------------------|--------------------------------|

 |       |       |       |        |       |       |       |        
|2-----2-2-----2-2-----2-2-----2-|--------------------------------|
|--------------------------------|-------   and so on...   -------|
|--------------------------------|--------------------------------|
|--------------------------------|--------------------------------|

Transcribe! 6.0 transcription http://www.seventhstring.demon.co.uk/
Created with TablEdit http://www.tabledit.com/
http://www.geocities.com/jani_bjorklund/janis.html
     
Добавлено: 17.10.2013
Другие материалы по этой песне:
  • Аккорды и текст

Страница создана 17.10.2013
http://primanota.ru/john-mayall/all-your-loving-chords.htm
Привет, Гость.
Предлагаем пройти революционный курс по гитаре.
Подарок от PrimaNota.Ru, забирай!