PrimaNota.ru - самый крупный в мире бесплатный архив песенных текстов, аккордов, табулатур и нот


John Mayall - Aint No Brakeman - таба, видео

Регистрация Запомнить меня
Войти через:  Facebook Google Twitter Vk Yandex Mail.ru

John Mayall - Aint No Brakeman - таба, видео

Печатать
Просмотров: 121
Уроки эстрадного вокала в Санкт-Петербурге
Artist: John Mayall And The Bluesbreakers
Album: Spinning Coin
Song: Ain't No Brakeman
Tabed For Tune: E
Tabed By Janne Tschokkinen
E-Mail: janne.tschokkinen@kolumbus.fi
Site: http://www.kolumbus.fi/janne.tschokkinen

!!!These tabs were created without any kinds of money making 
purposes and are to be used only for educational purposes!!!

!!!C not re-publish this tab without permission!!!
--------------------------------------------------------------

 Intro:
   Bb                      F
E|-----------------------|----------------|
H|-----------------------|----------------|
G|------------10---------|----------------|
D|-8--8-7-8s10----10-8s7-|--------7---7---|
A|-----------------------|-8----8---8---8-|
E|-----------------------|----------------|

   Bb                       F                Bb
E|------------------------|----------------|---------|
H|------------------------|----------------|---------|
G|-------------10---------|----------------|---------|
D|-7s8---7-8s10----10-8s7-|--------7---7---|-7s8-----|
A|------------------------|-8----8---8---8-|---------|
E|------------------------|----------------|---------|

Verse: 1
|: F | Bb :|X4 | C | C | C | C |: F | Bb :|

Verse: 2
|: F | Bb :|X4 | C | C | C | C | F | Bb |

Verse: 3
|: Eb Bb | Eb Bb | Eb Bb | F :| F | Bb | F | Bb |

Solo:
|: F | F | F | Bb :|: F | Bb :|X2 | C | C | C | C |: F | Bb :|

Verse: 4
|: F | Bb :|X4 | C | C | C | C |: F | Bb :|X4

Outro:
| F | Till Fade

     
Добавлено: 21.09.2013
Другие материалы по этой песне:
  • Аккорды и текст

Страница создана 21.09.2013
http://primanota.ru/john-mayall/aint-no-brakeman-chords.htm
Привет, Гость.
Предлагаем пройти революционный курс по гитаре.
Подарок от PrimaNota.Ru, забирай!