PrimaNota.ru - самый крупный в мире бесплатный архив песенных текстов, аккордов, табулатур и нот


John Martyn - Spencer The Rover Live - таба, видео

Регистрация Запомнить меня
Войти через:  Facebook Google Twitter Vk Yandex Mail.ru

John Martyn - Spencer The Rover Live - таба, видео

Печатать
Просмотров: 118
Уроки эстрадного вокала в Санкт-Петербурге
Artist: John Martyn
Song: Spencer The Rover (Radio 1 Live In Concert 1992)
Tuning: DADGAD, a semitone below concert pitch, capo 4th fret
Transcriber: Phil Champ (philchamp@yahoo.co.uk)


Lines 1, 2 & 4

D||-----------------0--|-----------------0--|-----------------0--|
A||-----------5--------|-----------5--------|-----------0--------|
G||--------2-----------|--------2-----------|--------0-----------|
D||-----0--------4-----|-----0--------4-----|-----4--------4-----|
A||--------------------|--------------------|--2-----------------|
D||--0-----------------|--0-----------------|--2-----------------|


                                                              
|-----------------0--|-----------------0--|-----------------0--|
|-----------0--------|-----------0--------|-----------0--------|
|--------0-----------|--------0-----------|--------0-----------|
|-----4--------4-----|-----4--------4-----|-----4--------4-----|
|--2-----------------|--2-----------------|--2-----------------|
|--2-----------------|--2-----------------|--2-----------------|


                                                             
Line 3

|-----------------0--|-----------------0--|-----------------0--|
|-----------0--------|-----------0--------|-----------0--------|
|--------0-----------|--------0-----------|--------0-----------|
|-----5--------5-----|-----4--------4-----|-----2--------2-----|
|--5-----------------|--4-----------------|--2-----------------|
|--5-----------------|--4-----------------|--2-----------------|


                                                               
|-----------------0--|-----------------0--|-----------------0--||
|-----------0--------|-----------0--------|-----------0--------||
|--------0-----------|--------0-----------|--------0-----------||
|-----2--------2-----|-----2--------2-----|-----2--------2-----||
|--2-----------------|--2-----------------|--2-----------------||
|--2-----------------|--2-----------------|--2-----------------||


This tune was composèd by Spencer the Rover
Who was as valiant a man as ever left home
Well he had been much reducèd and it caused great confusion
And that was the reason he started to roam

In Yorkshire near Rotherham he had been on the ramble
Being weary of this travelling he sat down to rest
By the foot of yon mountain there lies a clear crystal fountain
With bread and cold water he himself did refresh

With the night fast approaching to the woods he resorted
With the woodbine and the ivy his bed for to make
But he dreamt about sighing, lamenting and crying
Go home to your family and this rambling forsake

It was the fifth day of November I've had reason to remember
When first he arrived home to his family and his friends
Well they did stand so astounded, surprised and dumbfounded
To see such a stranger once more in their sight

Then his children come around him with their prittle prattling stories
They've got their prittle prattling stories to drive care away
He's as happy as those as have thousands of riches
Contented he'll remain and never ramble away

This tune was composèd by Spencer the Rover
Who was as valiant a man as ever left home
Well he had been much reducèd and it caused great confusion
And that was the reason he started to roam

 


     
Добавлено: 24.06.2013
Другие материалы по этой песне:
  • Аккорды и текст

Страница создана 24.06.2013
http://primanota.ru/john-martyn/spencer-the-rover-live-chords.htm
Привет, Гость.
Предлагаем пройти революционный курс по гитаре.
Подарок от PrimaNota.Ru, забирай!