PrimaNota.ru - самый крупный в мире бесплатный архив песенных текстов, аккордов, табулатур и нот


John Martyn - Singin In The Rain - таба, видео

Регистрация Запомнить меня
Войти через:  Facebook Google Twitter Vk Yandex Mail.ru

John Martyn - Singin In The Rain - таба, видео

Печатать
Просмотров: 45
-----------------------------------------------------------------
               Singin' In the Rain - John Martyn
-----------------------------------------------------------------

Tabbed By : Aeonoptic
e-mail: aeonoptic@gmail.com

Tuning: CGCGCE (Capo 5)

E|0------------0------------|
C|--0h2-0----0---0h2-0-2---0|
G|---------2-------------2--|
C|--0------0-----0-------0--| x5
G|--------------------------|
C|0-----0------0-----0------|

E|0-------3---------0---------| |---------------|------0-------|
C|----2/4---4\------7----7----| |--4-------2----|----0-0--0----|
G|--2---------------0--------0| |------0-------0|--0----------0|
C|----0--------0----7------0--| |4---4---2---2--|-----------0--| x3
G|----------------------------| |---------------|2-------------|
C|0---------0----0-----0------| |---------------|--------------|

E|-------------------|---------------|
C|--------0-------0--|----0-------0--|
G|------0---0---0---0|--0---0---0---0|
C|-------------------|---------------|
G|-------------------|---------------| x2
C|x-0-5-------4------|2-------2------|


E|0------------0------------|
C|--0h2-0----0---0h2-0-2---0|
G|---------2-------------2--|
C|--0------0-----0-------0--| x2
G|--------------------------|
C|0-----0------0-----0------|

E|------------3------|---0---------|
C|----------4---4---4|---7------0--|
G|0h2-4/5---------5--|---0----0----|
C|0-------0---------0|---7--------0|
G|-------------------|-------------|
C|----0-------0------|0-----0------|

E|--------------|------0--------|
C|--------0----0|0---0-----0----|
G|------0----0--|--0-----0-----0|
C|--------------|------------0--|
G|--------------|---------------| x4
C|x-0-5-----4---|2--------------|

E|0------------0------------|
C|--0h2-0----0---0h2-0-2---0|
G|---------2-------------2--|
C|--0------0-----0-------0--| x9 (til fade)
G|--------------------------|
C|0-----0------0-----0------|

| /  slide up
| \  slide down
| h  hammer-on
| p  pull-off
| ~  vibrato
| +  harmonic
| x  Mute note
Добавлено: 21.05.2016
Другие материалы по этой песне:
  • Аккорды и текст

Страница создана 21.05.2016
http://primanota.ru/john-martyn/singin-in-rain-chords.htm
Привет, Гость.
Предлагаем пройти революционный курс по гитаре.
Подарок от PrimaNota.Ru, забирай!