PrimaNota.ru - самый крупный в мире бесплатный архив песенных текстов, аккордов, табулатур и нот


John Martyn - London Conversation - текст песни, таба, видео

Регистрация Запомнить меня
Войти через:  Facebook Google Twitter Vk Yandex Mail.ru

John Martyn - London Conversation - текст песни, таба, видео

Печатать
Просмотров: 107
Tuning is DADDAD. (gffwillie@guitarfreaksforum.com)

4/4 : BPM: 135-140
Tabbed by litegauge (johnwmore@yahoo.com
Timing is approximative, listen to the original (or watch litegauge video on YouTube 
posted Feb 5 2011).
There are a few small changes between this tab and the way I recorded it, but I think 
they are improvements.

Intro repeated
 |       |       |       |        |       |       |       |
|--------------------------------|--------------------------------|
|------------0-------------------|------------0-------------------|
|----0---------------0-----------|----0---------------0-----------|
|*-------0---------------0-------|--------0---------------0-------|
|5-------------------------------|5-------------------------------|
|--------------------------------|--------------------------------|
 * slide up or hammer-on
 |       |       |       |        |       |       |       |
|------------7-------------------|7-----------5p--4------(4)p-0---|
|--------0-----------0-----------|----0-------------------0-------|
|----0---------------------------|--------------------------------|
|--------0---------------0-------|--------------------------------|
|5-------------------------------|--------------------------------|
|--------------------------------|0---------------0---------------|

 |       |       |       |        |       |       |       |
|------------7-------------------|7-----------5p--4---------------|
|--------0-----------0-----------|----0-------------------0-------|
|----0---------------------------|--------------------------------|
|--------0---------------0-------|--------------------------------|
|5-------------------------------|--------------------------------|
|--------------------------------|0---------------0---------------|

 |       |       |       |        |       |       |       |
|7-----------7-------------------|7-----------7-------------------|
|--------0-----------0-----------|--------0-----------0-----------|
|----0-------------------0-------|----0---------------------------|
|--------0-----------------------|--------0---------------0-------|
|5-------------------------------|5-------------------------------|
|--------------------------------|--------------------------------|
Verse
 |       |       |       |        |       |       |       |
|7-----------7-----------4-------|5---------------5-----------2---|
|--------0-----------0-----------|--------0-----------0-----------|
|----0-----------0---------------|----0-------------------0-------|
|--------0-----------------------|--------5-----------------------|
|5-------------------------------|0---------------0---------------|
|--------------------------------|--------------------------------|

 |       |       |       |        |       |       |       |
|4---------------4---------------|4---------------4---------------|
|--------0---------------0-------|--------0---------------0-------|
|----0---------------0-----------|----0---------------0-----------|
|--------4---------------4-------|--------4-----------------------|
|0---------------0---------------|0---------------0---------------|
|--------------------------------|--------------------------------|

 |       |       |       |        |       |       |       |
|--------------------------------|--------------------------------|
|0p--3---------------3-----------|0h--2---------------2-----------|
|------------0-------------------|------------0-----------0-------|
|--------0---------------0-------|--------0-----------------------|
|0p--3-----------3---------------|0h--2-----------2---------------|
|--------------------------------|--------------------------------|

 |       |       |       |        |       |       |       |
|----------------7---------------|------------7-------------------|
|0h--5---------------0-----------|------------0-------------------|
|------------0-----------0-------|----0---------------0-----------|
|--------0-----------------------|--------0---------------0-------|
|----5---------------------------|5-------------------------------|
|0-------------------------------|--------------------------------|

 |       |       |       |        |       |       |       |
|7-----------7-----------4-------|5---------------5-----------2---|
|--------0-----------0-----------|--------0-----------0-----------|
|----0-----------0---------------|----0-------------------0-------|
|--------0-----------------------|-------(5)----------------------|
|5-------------------------------|0-------*-------0---------------|
|--------------------------------|--------------------------------|
                                          * or open
 |       |       |       |        |       |       |       |
|4---------------4---------------|0---------------------------0---|
|--------0---------------0-------|--------0-------5---------------|
|----0---------------0-----------|----0---------------0-----------|
|--------4---------------4-------|--------0---------------0-------|
|0---------------0---------------|0---------------5---------------|
|--------------------------------|--------------------------------|

 |       |       |       |        |       |       |       |
|2---------------2---------------|--------------------------------|
|--------0---------------0-------|0h--2---------------2-----------|
|----0---------------0-----------|------------0-------------------|
|--------2---------------2-------|--------0---------------0-------|
|0---------------0---------------|0h--2-----------2---------------|
|--------------------------------|--------------------------------|

 |       |       |       |        |       |       |       |
|----------------7---------------|------------7-------------------|
|0h--5---------------0-----------|------------0-------------------|
|------------0-----------0-------|----0---------------0-----------|
|--------0-----------------------|--------0---------------0-------|
|----5---------------------------|5-------------------------------|
|0-------------------------------|--------------------------------|

 |       |       |       |        |       |       |       |
|--------------------------------|5---------------5---------------|
|------------0-------------------|--------0---------------0-------|
|----5---------------5-----------|----5---------------5-----------|
|--------0---------------0-------|--------0---------------0-------|
|5-------------------------------|--------------------------------|
|--------------------------------|5---------------5---------------|

 |       |       |       |        |       |       |       |
|4---------------4---------------|------------7-------------------|
|--------0---------------0-------|0h--5---------------------------|
|----0---------------0-----------|--------------------0-----------|
|--------4---------------4-------|--------0---------------0-------|
|0---------------0---------------|0h--5---------------------------|
|--------------------------------|--------------------------------|

 |       |       |       |        |       |       |       |
|7---------------7---------------|5---------------5---------------|
|--------0---------------0-------|--------0---------------0-------|
|----0---------------0-----------|----5---------------0-----------|
|--------0---------------0-------|--------0---------------0-------|
|5---------------5---------------|--------------------------------|
|--------------------------------|5---------------5---------------|

 |       |       |       |        |       |       |       |
|9---------------9---------------|7---------------7---------------|
|--------0---------------0-------|--------0---------------0-------|
|----0---------------0-----------|----0---------------0-----------|
|--------0---------------0-------|--------7---------------7-------|
|0---------------0---------------|0---------------0---------------|
|--------------------------------|--------------------------------|

 |       |       |       |        |       |       |       |
|7---------------7---------------|10----------10----------7-------|
|--------0---------------0-------|--------0-----------------------|
|----0---------------0-----------|----0-----------0---------------|
|--------7---------------7-------|--------10--------------7-------|
|0---------------0---------------|0-------------------------------|
|--------------------------------|--------------------------------|

 |       |       |       |        |       |       |       |
|9-----------9-----------5-------|7---------------7---------------|
|--------0-------0---------------|--------0-----------------------|
|----0---------------------------|----0---------------0-----------|
|--------9---------------5-------|--------7---------------0-------|
|0-------------------------------|5-------------------------------|
|--------------------------------|----------------0---------------|

 |       |       |       |        |       |       |       |
|------------7-------------------|7---------------7---------------|
|0h--5---------------------------|--------0---------------0-------|
|--------------------0-----------|----0---------------0-----------|
|--------0---------------0-------|--------0---------------0-------|
|0h--5---------------------------|5---------------5---------------|
|--------------------------------|--------------------------------|

 |       |       |       |        |       |       |       |
|--------------------------------|--------------------------------|
|------------7-------------------|------------5-------------------|
|----7---------------7-----------|----5---------------5-----------|
|--------7---------------7-------|--------5---------------5-------|
|--------------------------------|--------------------------------|
|7---------------7---------------|5---------------5---------------|

 |       |       |       |        |       |       |       |
|----------------7---------------|------------7-------------------|
|0h--5---------------0-----------|------------0-------------------|
|------------0-----------0-------|----0---------------0-----------|
|--------0-----------------------|--------0---------------0-------|
|----5---------------------------|5-------------------------------|
|0-------------------------------|--------------------------------|

Outro repeat
 |       |       |       |        |       |       |       |
|------------3p--0---------------|--------0-----------------------|
|3---5---------------5-----------|5---3-------3---2---------------|
|--------0---------------0-------|--------------------0-----------|
|--------------------------------|------------------------0-------|
|3---5---------------------------|5---3-------3---2---------------|
|--------------------------------|--------------------------------|

 |       |       |       |        |       |       |       |
|------------3p--0---------------|--------0-----------------------|
|3---5---------------5-----------|5---3-------3---2---------------|
|--------0---------------0-------|--------------------0-----------|
|--------------------------------|------------------------0-------|
|3---5---------------------------|5---3-------3---2---------------|
|--------------------------------|--------------------------------|

 |       |       |       |        |       |       |       |
|------------3p--0---------------|--------0-----------------------|
|3---5---------------5-----------|5---3-------3---2---------------|
|--------0---------------0-------|--------------------0-----------|
|--------------------------------|------------------------0-------|
|3---5---------------------------|5---3-------3---2---------------|
|--------------------------------|--------------------------------|
End
 |       |       |       |        |       |       |       |
|------------5---3---------------|7-------------------------------|
|3---5---------------5-----------|5-------------------------------|
|--------0-----------------------|0-------------------------------|
|------------------------0-------|0-------------------------------|
|3---5---------------------------|5-------------------------------|
|--------------------------------|--------------------------------|
Добавлено: 19.07.2012
Другие материалы по этой песне:
  • Аккорды и текст

Страница создана 20.03.2012
http://primanota.ru/john-martyn/london-conversation-chords.htm
Привет, Гость.
Предлагаем пройти революционный курс по гитаре.
Подарок от PrimaNota.Ru, забирай!