PrimaNota.ru - самый крупный в мире бесплатный архив песенных текстов, аккордов, табулатур и нот


John Mark Mcmillan - Who Is This - аккорды и текст, видео

Регистрация Запомнить меня
Войти через:  Facebook Google Twitter Vk Yandex Mail.ru

John Mark Mcmillan - Who Is This - аккорды и текст, видео

Печатать
Просмотров: 90
Who Is This
John Mark Mcmillan
John Mark McMillan
Who is this
From "Economy" 
Tabbed by thechadmiller (Twitter)
 

Capo 2
Intro
G - Bm - Em - G - A


Verse 1
G
Who is this the King of Glory
Bm
Who is this the King of Glory
Em
Who is this the King of Glory
G            A
Open up your gates before Him


Verse 2
Who is this the King of Glory
Who is this the King of Glory
Who is this the King of Glory
Open up you doors!


Interlude 1 (just like verse with no vocals)
G - Bm - Em - G - A

Chorus (same chords)
Open up you doors, You everlasting doors
Open up you doors, You everlasting doors
Open up you doors, You everlasting doors
Open up your gates before Him

Interlude 2

Chorus

Bridge/Solo (The Bm is a quick transition chord between the G & A)
G     Bm-A        Bm-G



For the chords, play them this way. I'm pretty sure this is how he plays
them, and it gives them an edge. 
*These are relative to the capo, so you'll actually be 2 frets up*
      G     Bm    Em    A
e|----x-----x-----0-----x----|
B|----5-----7-----7-----7----|
G|----4-----7-----7-----6----|
D|---(0)---(0)----5----(0)---|
A|----x-----x-----7-----x----|
E|----3-----7-----0-----5----|




Here are the lead tabs. Noodle around here and play them how its easiest.
There are a couple of spots I could be off, but overall its pretty much it.

Intro (:22)
e|--19~~~~----------16------------------|
B|--17~~~~--17--19------19--17----------|
G|--------------------------------------|
D|--------------------------------------|
A|--------------------------------------|
E|--------------------------------------|


Verse (Play in this area)
     G                     Bm   
e|---19~~~----16--------------19~~~--19~~~----19----19-----------------|
B|---17~~~-17----17-19-17--16~~~-----16~~~-16----16----16--------------|
G|---------------------------------------------------------------------|
D|---------------------------------------------------------------------|
A|---------------------------------------------------------------------|
E|---------------------------------------------------------------------|
    Em                      G          A
e|--16~~~-----16---------------19~~~~~~--------16----------------------|
B|--17~~~--17----17-19-17---16~~~~~~---17--19------19------------------|
G|---------------------------------------------------------------------|
D|---------------------------------------------------------------------|
A|---------------------------------------------------------------------|
E|---------------------------------------------------------------------|


Interlude 1 (1:25)
e|--------------------------------------|
B|-----------------14/16-16^~~~---------|
G|---14/16-16/18------------------------|  Play 4x
D|--------------------------------------|
A|--------------------------------------|
E|--------------------------------------|

Pick these (1:41), then (1:49)
e|--16~~~~---------------------------------16----------16------------|
B|--17~~~~---------------------16--17--19------16--17------19--------|
G|-------------------------------------------------------------------|
D|-------------------------------------------------------------------|
A|-------------------------------------------------------------------|
E|-------------------------------------------------------------------|


Interlude 2 (2:21)
e|------------------------------------------|
B|--17--17--17--16-16-16--12--14------------|
G|--------------------------------13--------| Play 4x
D|------------------------------------------|
A|------------------------------------------|
E|------------------------------------------|

(2:35)
e|--------12-14-14-14^^r12--------------12-14-14-14^^r12---------|
B|--12-14-----------------14~~~---12-14-----------------14~~~----|
G|---------------------------------------------------------------|
D|---------------------------------------------------------------|
A|---------------------------------------------------------------|
E|---------------------------------------------------------------|

e|-----------------------------------------|
B|-----12^^~~~---12^^r----10/12~~~~--------|
G|--13----------------13-------------------|
D|-----------------------------------------|
A|-----------------------------------------|
E|-----------------------------------------|


Bridge - Heavy tremolo improv up until this part (4:12)
e|---------------------------------------------------------------------|
B|--12/14-14-14\9~~~~---12/14-14-14/7----------------------------------|
G|-------------------------------------8^^~~~--------------------------|
D|---------------------------------------------------------------------|
A|---------------------------------------------------------------------|
E|---------------------------------------------------------------------|

e|---------------------------------------------------------------------|
B|--12/14-14-14\9~~~~-7/12~~~--12/14-14-14/7---------------------------|
G|-------------------------------------------8^^~~~--------------------|
D|---------------------------------------------------------------------|
A|---------------------------------------------------------------------|
E|---------------------------------------------------------------------|


For the solo, just improvise using all the notes throughout. Have fun
and be creative!


If you have any input or corrections, check out my blog for more info and 
let me know if you have any songs you need help with. God bless!
Добавлено: 27.03.2012
Другие материалы по этой песне:
  • Аккорды и текст

Страница создана 27.03.2012
http://primanota.ru/john-mark-mcmillan/who-is-this-chords.htm
Привет, Гость.
Предлагаем пройти революционный курс по гитаре.
Подарок от PrimaNota.Ru, забирай!