PrimaNota.ru - самый крупный в мире бесплатный архив песенных текстов, аккордов, табулатур и нот


John Mark Mcmillan - Sins Are Stones - аккорды и текст, видео

Регистрация Запомнить меня
Войти через:  Facebook Google Twitter Vk Yandex Mail.ru

John Mark Mcmillan - Sins Are Stones - аккорды и текст, видео

Печатать
Просмотров: 69
Sins Are Stones
John Mark Mcmillan
John Mark McMillan
Sins are Stones
From "Economy"
Tabbed by thechadmiller (Twitter)



Capo 2
Verse 1
C                              Gsus4
All our sins are stones at the bottom of your oceans
    Am             Gsus4            F   G  C
and all our filthy stains have been washed away


Chorus
       F                                  C
By the blood of a son I have overcome the grave
       F                                  C          Gsus4
By the blood of a son I have overcome the grave, the grave


Verse 2
C                          Gsus4
Recompense is made for the guilty and the shamed
     Am         Gsus4         F    Gsus4   C
For eternity is gained in the arms of the slain

Chorus

Bridge
      F                Gsus4
Oh my soul praise Him, oh my soul
      F                Gsus4
Oh my soul praise Him, oh my soul
      Am          F  C  Gsus4  Am         F  C  Gsus4
Oh my soul, oh my soul, oh my soul, oh my soul

Chorus


Lead tab over the chorus (slide)
e|---------------------------------------------------------------------|
B|---------------------------------------------------------------------|
G|--14~~11~~--14~~11~~--14~~11~~--14~~11~~9~~--------------------------|
D|---------------------------------------------------------------------|
A|---------------------------------------------------------------------|
E|---------------------------------------------------------------------|


Lead tab on outro (repeat over and over)
e|--------17-17--------------------------------------|
B|--------------19-19-17-19--------------------------|
G|--19-19--------------------------------------------|
D|---------------------------------------------------|
A|---------------------------------------------------|
E|---------------------------------------------------|
I'm pretty sure he's playing this on his Jerry Jones mini, but this sounds
good on the guitar.



If you have any input or corrections, check out my blog for more info and 
let me know if you have any songs you need help with. God bless!
Добавлено: 28.04.2012
Другие материалы по этой песне:
  • Аккорды и текст

Страница создана 28.04.2012
http://primanota.ru/john-mark-mcmillan/sins-are-stones-chords.htm
Привет, Гость.
Предлагаем пройти революционный курс по гитаре.
Подарок от PrimaNota.Ru, забирай!