PrimaNota.ru - самый крупный в мире бесплатный архив песенных текстов, аккордов, табулатур и нот


John Mark Mcmillan - Heart Bleeds - аккорды и текст, видео

Регистрация Запомнить меня
Войти через:  Facebook Google Twitter Vk Yandex Mail.ru

John Mark Mcmillan - Heart Bleeds - аккорды и текст, видео

Печатать
Просмотров: 110
Heart Bleeds
John Mark Mcmillan
John Mark McMillan
Heart Bleeds
From "Economy"
Tabbed by thechadmiller (Twitter)


Capo 5

Intro
C
C - F - G


Verse 1
C                Dm           F               C
We could be revelling forever in the love You bring
C                      Dm         F            C
and we could be wasted on You and not count it loss


Pre Chorus
     Dm                  F               G
Like fools in love we're bound to make a scene


Chorus 1 
C           
Our hearts bleed for You, oh
G
Our hearts bleed for You whoa-oh-oh-oh
F                 G                    F    G
Our hearts bleed, our hearts bleed for You


Verse 2
We could burn down the days inside the light of Your face
We could throw the years away and not regret the price we pay

Pre Chorus

Chorus 2
C           
Our hearts bleed for You, oh
G
Our hearts bleed for You whoa-oh-oh-oh
F                 G                    C
Our hearts bleed, our hearts bleed for You


Solo over chorus 2 chords 


Bridge
Am             F                  C     G/B
You have loved alive the dead and gone
Am                 F                    Em   G
Filled our thirsty veins with blood and song

Chorus 2


Intro/Solo
e|-----------8---------------------------------------------------------|
B|--10~~~-10---8------8-10-8--------8-10-8----8---8-10-8---------------|
G|---------------------------10-7----------10------------10-10~~~------|
D|---------------------------------------------------------------------|
A|---------------------------------------------------------------------|
E|---------------------------------------------------------------------|



Chorus 2 second time (play with a slide)
e|--------13-----------------------------------------------------------|
B|--13~~~----13
Добавлено: 06.05.2012
Другие материалы по этой песне:
  • Аккорды и текст

Страница создана 06.05.2012
http://primanota.ru/john-mark-mcmillan/heart-bleeds-chords.htm
Привет, Гость.
Предлагаем пройти революционный курс по гитаре.
Подарок от PrimaNota.Ru, забирай!