PrimaNota.ru - самый крупный в мире бесплатный архив песенных текстов, аккордов, табулатур и нот


John Lunn - Did I Make The Most Of Loving You - таба, видео

Регистрация Запомнить меня
Войти через:  Facebook Google Twitter Vk Yandex Mail.ru

John Lunn - Did I Make The Most Of Loving You - таба, видео

Печатать
Просмотров: 56
-------------------------------------------------------------------------------
                             Did I Make The Most Of Loving You
                                  Downton Abbey - Intro
-------------------------------------------------------------------------------
Tabbed by: Shantanu Mishra
E-mail: smjr.005@gmail.com

Tuning:Standard Tuning ( e B G D A E )

e|------------------------------------------------------------------------------------|
B|-5-5-5----5-------------------------------------------------------------------------|
G|--------7----4-4-2-4-------4-5-4----------------------------------------------------|
D|-----------------------2-5-------2--------------------------------------------------|
A|------------------------------------------------------------------------------------|
E|------------------------------------------------------------------------------------|

e|---------------------------------------------------------------------------------------|
B|-5-5------8---------------------------------5-----3-----0------------------------------|
G|--------7---4-4-2-4------4-5-4-----7-5-------------------------------------------------|
D|---------------------2-5-------2-5-----2-5---------------------------------------------|
A|---------------------------------------------------------------------------------------|
E|---------------------------------------------------------------------------------------|
Добавлено: 20.06.2016
Другие материалы по этой песне:
  • Аккорды и текст

Страница создана 20.06.2016
http://primanota.ru/john-lunn/did-i-make-most-of-loving-you-chords.htm
Привет, Гость.
Предлагаем пройти революционный курс по гитаре.
Подарок от PrimaNota.Ru, забирай!