PrimaNota.ru - самый крупный в мире бесплатный архив песенных текстов, аккордов, табулатур и нот


John Loeffler - We Will Be Heroes - Pokemon Theme - таба, видео

Регистрация Запомнить меня
Войти через:  Facebook Google Twitter Vk Yandex Mail.ru

John Loeffler - We Will Be Heroes - Pokemon Theme - таба, видео

Печатать
Просмотров: 72
-------------------------------------------------------------------------------
       We will be heroes (Pokémon battle dimension theme) - John Loeffler and David Wolfert
-------------------------------------------------------------------------------
Tabbed by: Bobbotronz
E-mail:

Tuning: Standard

This is the version they play just before an episode of season 11 pokemon (Battle dimension). My first tab,
 so there could be a few errors. Feel free to tell me what they are :)
*Optional (The lyric is 'but', although you don't really hear it in the song.) 

Verse:
e|--0---0---------0---0--------------2--2--------2--2--2---------------------|
B|----------0-------------0-----0*---------0--0-----------0------------------|
G|---------------------------------------------------------------------------|
D|---------------------------------------------------------------------------|
A|---------------------------------------------------------------------------|
E|---------------------------------------------------------------------------|

e|--4--2--0---0--4--2--0--2--------4--0--0--0--2-----------------------------|
B|---------------------------2-----------------------------------------------|
G|---------------------------------------------------------------------------|
D|---------------------------------------------------------------------------|
A|---------------------------------------------------------------------------|
E|---------------------------------------------------------------------------|
Chorus:
e|----4--2--0-----0----0-0-0--0-2--2--2--4--2------4--2--0-----0---0-0-0-0---|
B|-------------4--------------------------------------------4----------------|
G|---------------------------------------------------------------------------|
D|---------------------------------------------------------------------------|
A|---------------------------------------------------------------------------|
E|---------------------------------------------------------------------------|

e|----2--2--4--2-------4--2--0--7--2-----0-0-0--4---2---0----2---------------|
B|--------------------------------------------------------4------------------|
G|---------------------------------------------------------------------------|
D|---------------------------------------------------------------------------|
A|---------------------------------------------------------------------------|
E|---------------------------------------------------------------------------|

Добавлено: 20.06.2016
Другие материалы по этой песне:
  • Аккорды и текст

Страница создана 20.06.2016
http://primanota.ru/john-loeffler/we-will-be-heroes-pokemon-theme-chords.htm
Привет, Гость.
Предлагаем пройти революционный курс по гитаре.
Подарок от PrimaNota.Ru, забирай!