PrimaNota.ru - самый крупный в мире бесплатный архив песенных текстов, аккордов, табулатур и нот


Леннон Джон - Revolution - текст песни, таба, видео

Регистрация Запомнить меня
Войти через:  Facebook Google Twitter Vk Yandex Mail.ru

Леннон Джон - Revolution - текст песни, таба, видео

Печатать
Просмотров: 246
John Lennon: Revolution (acoustic)
Tabbed by: ARP


!!!!!!!!!!!!Half step down!!!!!!

Play D And G:
       D                     G
|---x---x---x---x-|  |---x---x---x---x-| 
|---x---x---x---x-|  |---x---x---x---x-|
|---x---x---x---x-|  |---x---x---x---x-|
|---7---7---9---7-|  |---x---x---x---x-|
|---5---5---5---5-|  |---5---5---7---5-|
|---x---x---x---x-|  |---3---3---3---3-|
-----------------------------------------------------------------------------------------------
Intro:
-------------------------------------------------------------------------------------------------
      D                                                                                                
|---x---x---x---x-| x2   -------5------------ x1 |---x---x---x---x-| x2   |---x-x--| x4 
|---x---x---x---x-|      ---5h7---5----------    |---x---x---x---x-|      |---x-x--| 
|---x---x---x---x-|      -----------7--------    |---x---x---x---x-|      |---x-x--| 
|---7---7---9---7-|      --------------------    |---7---7---9---7-|      |---x-x--| 
|---5---5---5---5-|      --------------------    |---5---5---5---5-|      |---7-x--| 
|---x---x---x---x-|      -------------5--7---    |---x---x---x---x-|      |---5-5--| 

--------------------------------------------------------------------------------------------------
    D                                    G
You say you want a revolution, well you know
                             D
We all want to change the world
                                           G
You tell me that it's evolution, well you know
                            A     (slowly add the rest for bar A7)
We all want to change the world

-------------------------------------------------------------------------
Full bar chords.
-----------------------------------------------------------------------
Em                         A
But when you talk about destruction
Em                            C   D   B  (reg.)A                 
Don't you know that you can count me out


:::::Chorus::::::
                           D     G         
Don't you know it's gonna be, alright   

                        D     G         
Don't you know it's gonna be, alright   

                        D     G      /slide   
Don't you know it's gonna be, alright   

|-----------------------|  x2
|-----------------------|
|-----------------------|
|---------5--------7----|
|-----5h7------5h7------|
|-5-5-------5-----------|

|---x---x--|  x4
|---x---x--|
|---x---x--|
|---x---x--|
|---7---x--|
|---5---5--|

 D                                        G
You say you got a real solution, well you know
                           D
We'd all love to see the plan
                                          G
You ask me for a contribution, well you know
                         A      (slowly add the rest for bar A7)
We're all doing what we can

Em                          A
But if you want money for minds that hate
Em                                   C  D   B    \ A
All I can tell you is brother you have to wait


                        D     G         
Don't you know it's gonna be, alright   

                        D     G         
Don't you know it's gonna be, alright   

                        D     G         
Don't you know it's gonna be, alright   



|-----------------------|  x2
|-----------------------|
|-----------------------|
|---------5--------7----|
|-----5h7------5h7------|
|-5-5-------5-----------|

|---x---x--|  x4
|---x---x--|
|---x---x--|
|---x---x--|
|---7---x--|
|---5---5--|


  D                                              G
You say you'll change the constitution, well you know
                           D
We all want to change your head
                                            G
You tell me it's the institution, well you know
                              A        (slowly add the rest for bar A7)
You better free your mind instead

Em                                  A
But if you go carrying pictures of Chairman Mao
Em                                  C   D   B    \ A
You ain't gonna make it with anyone any  how 

                          D      G
Don't you know it's gonna be, alright   X (Whatever)
  
Добавлено: 29.06.2015
Другие материалы по этой песне:
  • Аккорды и текст

Страница создана 09.07.2012
http://primanota.ru/john-lennon/revolution-chords.htm
Привет, Гость.
Предлагаем пройти революционный курс по гитаре.
Подарок от PrimaNota.Ru, забирай!