PrimaNota.ru - самый крупный в мире бесплатный архив песенных текстов, аккордов, табулатур и нот


Леннон Джон - Out The Blue - текст песни, таба, видео

Регистрация Запомнить меня
Войти через:  Facebook Google Twitter Vk Yandex Mail.ru

Леннон Джон - Out The Blue - текст песни, таба, видео

Печатать
Просмотров: 323
            John Lennon - Out The Blue


     |     |     |     |        |       |     |     |
E||--------------------------|----------------------------|
B||--0--------0--2--------2--|--10------7-----3-----2-----|
G||--------0-----------2-----|------11-----7-----4-----2--|
D||-----0-----------2--------|----------------------------|
A||--------------0-----------|--9-------5-----2-----0-----|
E||--3-----------------------|----------------------------|


   |      |       |     |         |     |     |     |
|------------------------------|--------------0-----------|
|--0-------------2--------2----|-----------3-----3--------|
|-----------4---------2--------|--------0-----------0-----|
|-------5-----------2-------2--|-----2-----------------2--|
|-----5-------5--0------0------|--3-----------------------|
|--3------3--------------------|--------------------------|


   |     |     |     |        |      |      |     |
|-----------------------2--|--3----------------------0--|
|-----------3--3-----3-----|----------------------------|
|--------0--------2--------|-----------4----3--4--6-----|
|-----2--------0-----------|-------5--------------------|
|--3-----------------------|-----5-------5--------------|
|--------------------------|--3------3------2--3--5-----|


          Out 


   |      |      |      |         |    |--3--|  |     |               
|-------------------------0----|----------------------------|
|--3--------3------------------|-------5--4--3--2-----5-----|
|-------4-------------2--------|--3----------------3-----6--|
|-----4-------4-----2-------2--|----------------------------|
|--2------2------0------0------|----------------------------|
|------------------------------|--2-------------2-----5-----|


      And 


   |      |      |      |         |       |     |     |
|------------------------------|----------------------------|
|--3-------------5-------------|--10------7-----3-----2-----|
|-----------4-------------6----|------11-----7-----4-----2--|
|-------5-------------7--------|----------------------------|
|-----5-------5-----7-------7--|--9-------5-----2-----0-----|
|--3------3------5------5------|----------------------------|


          Out 


   |      |      |      |         |                                            
|------------------------------|--0----------------||
|--0-------------2--------2----|--3----------------||
|-----------4---------2--------|--0----------------||
|-------5-----------2-------2--|--2----------------||
|-----5-------5--0------0------|--3----------------||
|--3------3--------------------|-------------------||

          Out 



     G                F        C
Everyday 

 Dm  Em  F    B              Em
For 
 
C D         C     G  B C       B         Em
 Anyway 


 C       D               G   F#
Out 

 Bm        A            F#
And 

 G        A              D F#m B#m F#  
Out 

 G        A               C
Out 

Transcribed by Askar Rahimberdiev, amr@mailru.com

     
Добавлено: 20.09.2013
Другие материалы по этой песне:
  • Аккорды и текст

Страница создана 15.03.2012
http://primanota.ru/john-lennon/out-the-blue-chords.htm
Привет, Гость.
Предлагаем пройти революционный курс по гитаре.
Подарок от PrimaNota.Ru, забирай!