PrimaNota.ru - самый крупный в мире бесплатный архив песенных текстов, аккордов, табулатур и нот


Леннон Джон - Imagine All The People - аккорды и текст, видео

Регистрация Запомнить меня
Войти через:  Facebook Google Twitter Vk Yandex Mail.ru

Леннон Джон - Imagine All The People - аккорды и текст, видео

Печатать
Просмотров: 599
Уроки эстрадного вокала в Санкт-Петербурге
Imagine All The People
Леннон Джон
Intro/Verse-
E-------------------------------------------------------------------
B--------------0-----------------------0----------------------------
G--0---0---0---0-------2---2---2---2h3------------------------------
D--2---2---2-----------3---3---3---3--------------------------------
A----3---3---3---3-------3---3---3----------------------------------
E-------------------------------------------------------------------

-Pre Chorus-(Slowly strum or fingerpick each chord 4 times)
Played during:
"Imagine all the people.....Livin for today..Yoo hoo"
E--1111--1111--1111--1111--------------------------------
B--1111--1111--1111--1111--------1111--3333--------------
G--2222--2222--2222--2222--0000--------------------------
D--3333--2222--------0000--0000--2222--3333--------------
A--------------------3333--2222--------------------------
E--------------------------3333--3333--3333--------------

-Chorus-(play 3 times then play chorus outro)
E--------------------------------------0-------------------
B--1-----1-----3-----3-----1-----0--1--3----3--------------
G--2-----2-----4-----4-----0-----0--0--1----1--------------
D--3--3--3--3--5--5--5--5--2-----2--2--0----0--------------
A--3-----3-----5-----5-----3--3--3--3--2----2--------------
E--1-----1-----3-----3--------------------0----0-----------

-Chorus Outro-
E--------------------------------------------------0-------
B-----1-----1-----1-----1--1-----1-----3-----3-----1-------
G-----0--------------------2-----2-----4-----4-----0-------
D-----2--------------------3--3--3--3--5--5--5--5--2-------
A--3-----------0-----2-----3-----3-----5-----5-----3-------
E--------3-----------------1-----1-----3-----3-----3-------
Добавлено: 02.08.2013
Другие материалы по этой песне:
  • Аккорды и текст

Страница создана 02.08.2013
http://primanota.ru/john-lennon/imagine-all-the-people-chords.htm
Привет, Гость.
Предлагаем пройти революционный курс по гитаре.
Подарок от PrimaNota.Ru, забирай!